• 0
  • Share
  • Font Size
    15
Portishead – Dummy
BAND:PORTISHEAD
SONG:DUMMY (LIVE VERSION)
FANX TO NO 1 BUT MYSELF COS I WORKED IT OUT ON MY OWN.
TABBED BY GINGA FREAK AKA FUNKY MUNK
VERSE
 G--------------------------------
 D--------------------------------
 A-6--6-4--4-3--3--2-*{2-4-2--4-2}*
 E--------------------------------
                      *THIS BIT IS OPTIONAL I JUST
                      COOL AS IS A VERY SIMPLE BASS LINE*
 CHORUS
 G---8----6----5----4--
 D--8-8--6-6--5-5--4-4-
 A-6----4----3----2----
 E---------------------
 THIS IS FOLLOWING THE GUITAR WHICH PLAYS APPREGIOS.ON THE SOLO
 SAME RIFF IS PLAYED WITH A FEW VARRIATIONS BUT MOSTLY
 JUST VERY SIMPLE ONES. NEWAY BYEBYE FOLKS LOVE U ALL.

Log In to leave a comment

After registration we will return you to the same place
Comments
face-with-monocle
If you wait a bit, some comments may appear here...

Shhh...