Police logo

Fall out Police

  • 0
  • Share
  • Font Size
Police – Fall out
Intro
E|------------------------------|
B|------------------------------|
G|------------------------------|
D|-6h7------6h7--------7----7-7-|
A|-0---0-0--0---0-0-0--0-0--0-0-|
E|------------------------------|

Verse
E|--------------------------------------------------------------------|
B|--------------------------------------------------------------------|
G|-7--7-7-7-7-7-7--3--3-3-3-3-3-3--5--5-5-5-5-5-5--12--12-12-12-12-12-|
D|-7--7-7-7-7-7-7--3--3-3-3-3-3-3--5--5-5-5-5-5-5--12--12-12-12-12-12-|
A|-5--5-5-5-5-5-5--1--1-1-1-1-1-1--3--3-3-3-3-3-3--10--10-10-10-10-10-|
E|--------------------------------------------------------------------|

Fall out!
E|--------------------------------------------------------------------|
B|--------------------------------------------------------------------|
G|-7---------------3--3-3-3-3-3-3--5--5-5-5-5-5-5--12--12-12-12-12-12-|
D|-7---------------3--3-3-3-3-3-3--5--5-5-5-5-5-5--12--12-12-12-12-12-|
A|-5---------------1--1-1-1-1-1-1--3--3-3-3-3-3-3--10--10-10-10-10-10-|
E|--------------------------------------------------------------------|

Solo
E|--------------------------------------4b------------|
B|---6bf--6bp5---5--------------------3-----8p6-6--9b-|
G|-7-----------7---7-5------------3-5-----------------|
D|---------------------3-5--3-4-5---------------------|
A|----------------------------------------------------|
E|----------------------------------------------------|

E|-------10-10---------10--------10-|
B|---------------------10--------10-|
G|-12-12b--------12-12----12-12b----|
D|----------------------------------|
A|----------------------------------|
E|----------------------------------|

E|--------10-----------------------------------------------------|
B|--------10-------------------------------12--------------------|
G|-12-12b----12b-12--12bp10----10----------12--------10-12-10-12-|
D|--------------------------12----12p10--------10-12-------------|
A|--------------------------------------12-----------------------|
E|---------------------------------------------------------------|

E|----------------------------|
B|-10/15-15-15-15-15-15-15-15-|
G|-10/14-14-14-14-14-14-14-14-|
D|----------------------------|
A|----------------------------|
E|----------------------------|

E|---------------------------------------------------------------------|
B|-15-15--17-15-17-15--13--10----10----12--10--10-10-10-10-10-10-10-10-|
G|-14-14--16-14-16-14--12--10----10----12--10--10-10-10-10-10-10-10-10-|
D|----------------------------12----12---------------------------------|
A|---------------------------------------------------------------------|
E|---------------------------------------------------------------------|

E|-------------------|
B|-12-12-12-12-12-12-|
G|-12-12-12-12-12-12-|
D|-------------------|
A|-------------------|
E|-------------------|

E|--------------------------|
B|-12-12-12--10----10-10-10-|
G|-12-12-12--10----10-10-10-|
D|--------------12----------|
A|--------------------------|
E|--------------------------|

Oh.....
E|------------------------------|
B|------------------------------|
G|------------------------------|
D|-6h7------6h7--------7----7-7-|
A|-0---0-0--0---0-0-0--0-0--0-0-|
E|------------------------------|

Verse
E|--------------------------------------------------------------------|
B|--------------------------------------------------------------------|
G|-7--7-7-7-7-7-7--3--3-3-3-3-3-3--5--5-5-5-5-5-5--12--12-12-12-12-12-|
D|-7--7-7-7-7-7-7--3--3-3-3-3-3-3--5--5-5-5-5-5-5--12--12-12-12-12-12-|
A|-5--5-5-5-5-5-5--1--1-1-1-1-1-1--3--3-3-3-3-3-3--10--10-10-10-10-10-|
E|--------------------------------------------------------------------|

Fall out!
E|--------------------------------------------------------------------|
B|--------------------------------------------------------------------|
G|-7---------------3--3-3-3-3-3-3--5--5-5-5-5-5-5--12--12-12-12-12-12-|
D|-7---------------3--3-3-3-3-3-3--5--5-5-5-5-5-5--12--12-12-12-12-12-|
A|-5---------------1--1-1-1-1-1-1--3--3-3-3-3-3-3--10--10-10-10-10-10-|
E|--------------------------------------------------------------------|

E|------------------------------|
B|------------------------------|
G|------------------------------|
D|-6h7------6h7--------7----7-7-|
A|-0---0-0--0---0-0-0--0-0--0-0-|
E|------------------------------|

E|--------------------------------------------------------|
B|--------------------------------------------------------|
G|--------------------------------------2-2-2-2-2-2-2-2-2-|
D|-7-7-7-7--7-7-7-7--7-7-7-7--7-7-7-7---2-2-2-2-2-2-2-2-2-|
A|-0-0-0-0--0-0-0-0--0-0-0-0--0-0-0-0---0-0-0-0-0-0-0-0-0-|
E|--------------------------------------------------------|

Log In to leave a comment

After registration we will return you to the same place
Comments
face-with-monocle
If you wait a bit, some comments may appear here...

Shhh...