Loading...
Poison The Well logo

Ghostchant Poison The Well

  • 0
  • Share
  • Transposing
    0
  • Font Size
Hi, this is an accurate tab of Ghostchant by Poison The Well-can`t believe
No-one`s tried to tab this incredible track before!

Info:
PM=palm mute
Xx=mute
/=slide
B=bend

TUNING: Drop C# (C#,G#,C#,F#,A#, D#)

Intro:
D#|-----------------|
A#|-----------------|
F#|-----------------|
C#|--6/7-6/7-xxxxxx-|
G#|--6/7-6/7-xxxxxx-|
C#|--6/7-6/7-xxxxxx-|

Verse:
D#|-------------------------------|
A#|-------------------------------|
F#|----------7-7-7----------8-8-8-|
C#|--6/7-0-0-x-x-x--6/7-0-0-x-x-x-|
G#|--6/7-0-0-5-5-5--6/7-0-0-6-6-6-|
C#|--6/7-0-0--------6/7-0-0-------|
Note;bend 7-7-7 and 8-8-8 sections slightly
x-x-x x-x-x
5-5-5 6-6-6
Bridge:
D#|--------------------------|
A#|--------------------------|
F#|----------7-7-7-----------|
C#|--6/7-0-0-x-x-x--6/7-0-0--|
G|#--6/7-0-0-5-5-5--6/7-0-0--|
C#|--6/7-0-0--------6/7-0-0--|
PM - -

Chorus:
D#|---------------------|----------------------------------------------|
A#|---------------------|------------------777777-777777-777777-777777-|
F#|-----------------6-6-|------------------xxxxxx-xxxxxx-xxxxxx-xxxxxx-|
C#|-0-----3-----4---4-4-|--0-----3-----4---444444-444444-444444-444444-|
G#|-0-----3-----4---4-4-|--0-----3-----4-------------------------------|
C#|-0-----3-----4-------|--0-----3-----4-------------------------------|

Post Chorus:
D#|----------|--------|---------------|
A#|----------|--------|---------------|
F#|----------|--------|---------------|
C#|--6/7-6/7-|-000000-|--------555555-|
G#|--6/7-6/7-|-000000-|-555555--------|
C#|--6/7-6/7-|-000000-|---------------|
-----
PM

Post Chorus 2:
D#|--------------------------------------------------------------------|
A#|------------------------ -------------------------55555555----------|
F#|--------------------------------------------------xxxxxxxx----------|
C#|--3-------0--------3--------6----------3--------0-22222222-2------5-|
G#|--3-------0--------3--------6----------3--------0----------2------5-|
C#|--3-------0--------3--------6----------3--------0----------2------5-|

Middle (Guitar 1):
D#|-----------------------------------------------|
A#|-----------------------------------------------|
F#|-----------------------------------------------|
C#|--3----------2----------7----------6-----------|
G#|--3----------2----------7----------6-----------|
C#|--3----------2----------7----------6-----------|

Middle (Guitar 2): w/ digital delay
D#|--------------------------------------------|
A#|--------------------------------------------|
F#|--9-9/7-7-7/5-5-4--5-4/2----9-9/7-7-7/5-7b--|
C#|--------------------------------------------|
G#|--------------------------------------------|
C#|--------------------------------------------|

End:
D#|---------------------------------------------------------------|
A#|---------------------------------------------------------------|
F#|---------------------------------------------------------------|
C#|--6/7-000-6/7-000-6/7-000-6/7-000-6/7-000-6/7-000-6/7-000-6/7--|
G#|--6/7-000-6/7-000-6/7-000-6/7-000-6/7-000-6/7-000-6/7-000-6/7--|
C#|--6/7-000-6/7-000-6/7-000-6/7-000-6/7-000-6/7-000-6/7-000-6/7--|
PM --- --- --- --- --- --- ---

Order:
Intro
Verse
Bridge
Chorus
Post Chorus 1
Post Chourus 2
Middle (both Guitars)
Chorus
Intro
Verse
End

Log In to leave a comment

After registration we will return you to the same place
Comments
face-with-monocle
If you wait a bit, some comments may appear here...

Shhh...

Most Popular