P.O.D. logo

Tribal P.O.D.

  • 1
  • Share
  • Transposing
    0
  • Font Size
    15
P.O.D. – Tribal
Dropped D tuning

Intro: 3x
[E----------------
B----------------
G
D-4-6--4-6--7~---
A-4-6--4-6--7~---
D-4-6--4-6--7~---]

Chorus: ("Where do you stand in this battle cry?…")
[E-----------------------------------------------------------------------------
B
G----------------------------------8-8-8-8-8-8-8-8----------------------------
D-7-7-7-7-7-7-7-7-7-7-8-8-8-8-8-8-8-8-8-8-8-8-5-5-5-5-5-5-5-5-----------------
A-7-7-7-7-7-7-7-7-7-7-8-8-8-8-6-6-6-6-6-6-6-6-5-5-5-5-5-5-5-5-----------------
D-7-7-7-7-7-7-7-7-7-7-8-8-8-8---------------------5-5-5-5-5-5-5-5-------------]

Verse: ("The reconstruction commences…")
[E-----------2-2-2-2-3-3~---
B-------3--3-3-3-3-3-3~----
G----2---------------------
D
A-2------------------------
D--------------------------]

Chorus
Verse

Verse Variation: ("We flow in Unity, stand in One…")
[E----------------------------
B-------3---------3--------3-
G----2--------2---------2----
D
A-2--------2---------(2-)----
D----------------------------]

Bridge: Palm mute at first ("We will never die…")
[E----------------------------
B----------------------------
G
D-2-2-2--3-3-3--6-6-5-5------
A-2-2-2--3-3-3--6-6-5-5------
D-2-2-2--3-3-3--6-6-5-5------]

Bridge to Chorus 2:
[E--------------------------------------------
B--------------------------------------------
G
D-2~-----------------------------------------
A-2~then-scratch-down-these-strings----------
D-2~then-scratch-down-these-strings----------]

Intro
Chorus
Verse

Log In to leave a comment

After registration we will return you to the same place
Comments
face-with-monocle
If you wait a bit, some comments may appear here...

Shhh...