Placebo logo

Special Needs Placebo

  • 3
  • Share
  • Font Size
Placebo – Special Needs
Capo 2nd fret

Intro, Verse:
E|------------------------------------|
B|------------------------------------|
G|------------------------------------|
D|------------------------------------|
A|----6-6-6--6---6-7s-2-2-2-2-2-------|
E|-0-0-0---0---0-0-0s-0-0-0-0-0-------|

Second Guitar: the keyboard thing (play this during the verse)
E|------------------------------------|
B|------------------------------------|
G|-------4------------4-----------4---|
D|---2--------2---2-------2---2-------|
A|-2---2----2---2---2---2---2---2-----|
E|------------------------------------|

Chorus: (overdrive)
Most people use chords for this part, but I think it's played like this:
E|---------------------------------------------------------------------|
B|---------------------------------------------------------------------|
G|---------------------------------------------------------------------|
D|---------------------------------------------------------------------|
A|-6-7-7-7-7-7-7-7--6-7-7-7-7-7-7-7--2-2-2-2-2s-6-6-7-7-7s-2-2-2-2-2s--|
E|-0-0-0-0-0-0-0-0--0-0-0-0-0-0-0-0--0-0-0-0-0s-0-0-0-0-0s-0-0-0-0-0s--|

E|----------------------|
B|----------------------|
G|----------------------|
D|----------------------|
A|-6-6-7-7-7------------|
E|-0-0-0-0-0------------|

Bridge: just play the verse and turn in to overdrive after a few times
When the drum drops in, continue playing the verse in distortion, and
A second guitar could play the piano part, wich is plus minus like this:
E|------------------------------------------|
B|------------------------------------------|
G|------------------------------------------|
D|-sss6---4---2---1---6---4---2---1---------|
A|------------------------------------------|
E|------------------------------------------|

Piano in final chorus:
These pieces are played in this order, listen to the song for the rhitm and timing.
E|------------------|------------------------|
B|------------------|------------------------|
G|------------------|-6-6-4------------------|
D|-6---6-4-6-4-2----|-------4-4-4h6--4-4-4h6-|
A|------------------|------------------------|
E|------------------|------------------------|

Log In to leave a comment

After registration we will return you to the same place
Comments
face-with-monocle
If you wait a bit, some comments may appear here...

Shhh...

Most Popular
You Might Like