Loading...
Placebo logo

Sleeping With Ghosts Placebo

  • 0
  • Share
  • Transposing
    0
  • Font Size
Intro:
Gtr1: with piano backing
E----------------------------------------------------
B-18-18-18--18-16-16-16--16-14-14-14--14-13-13-13-13-
G---------------------------------------------------- x2
D----------------------------------------------------
A----------------------------------------------------
E----------------------------------------------------

Gtr3:
E---------------------------------------
B---------------------------------------
G---------------------------------------
D-10-11-----10-11----10--11----11-10----
A-------11--------11--------------------
E---------------------------------------

Gtr2: A# C#

Verse:
Gtr2: A# C#

Gtr3:
E------------------------------------
B------------------------------------
G------------------------------------
D-10-11-----10-11----10--11----11-10-
A-------11--------11-----------------
E------------------------------------

Chorus:
Gtr1:
E----------------------------------------------------
B-18-18-18--18-16-16-16--16-14-14-14--14-13-13-13-13-
G---------------------------------------------------- x2
D----------------------------------------------------
A----------------------------------------------------
E----------------------------------------------------

Gtr2: A# C#

Gtr4:
E------------------------------
B------------------------------
G----------------8-------------
D--8-10--8-11--8----8-10--8-11-
A------------------------------
E------------------------------

Verse 2: same as chorus but without guitar 1

Bridge:
E-----------------------------------------
B-----------------------------------------
G---------------------------------11-10-8-
D---15--13--11--10------------------------
A-----------------------------------------
E-----------------------------------------

Log In to leave a comment

After registration we will return you to the same place
Comments
face-with-monocle
If you wait a bit, some comments may appear here...

Shhh...