Placebo logo

Plasticine Placebo

  • 1
  • Share
  • Font Size
Placebo – Plasticine
----------------------------------------------------------------------------
PLASTICINE - Placebo
----------------------------------------------------------------------------
Tabbed by: Jesse Benedick
Email: [email protected]

Tuning: Standard

E|----------------------------------------|--8------5-----7-------5---8----|
B|--8-----5------4-4-4-4-4-4-4-4-4--------|--8------5-----7-------5---8----|
G|--9-----6-------------------------------|--10-----7-----9-------6---9----|
D|--10----7-------------------------------|--10-----7-----9-------7---10---|
A|--10----7-------------------------------|--8------5-----7-------7---10---|
E|--8-----5-------------------------------|-----------------------5---8----|
Guitar 1 (gradual half bend,then release) Riff 2
E|-----------------------|-------------------------------------------------|
B|--13~--12-13~----------|--5----8-----------------------------------------|
G|-----------------------|--6----9-----------------------------------------|
D|-----------------------|--7----10----------------------------------------|
A|-----------------------|--7----10----------------------------------------|
E|-----------------------|--5----8-----5-3-3-3--5-3--5-5-------------------|
(Guitar 2,end of riff 2) Chorus
E|------------------------|------------------------------------------------|
B|------------------------|------------------------------------------------|
G|--11----13----13----11--|------------------------------------------------|
D|--11----13----13----11--|-6-6-6-6-6-6-6-6--7-7-7-7-7-7-7-7-9-7-7-7-9-7-7-|
A|--9-----11----11----9---|------------------------------------------------|
E|------------------------|------------------------------------------------|
Breakdown Guitar 1 Guitar 2
E|-------------------------------------------------------------------------|
B|-------------------------------------------------------------------------|
G|-------------------------------------------------------------------------|
D|-7--9-9-9-9-9-9-9-9-9--11-11-11-11-11-11-11-12-11-11-11-12-11-11-11------|
A|-------------------------------------------------------------------------|
E|-------------------------------------------------------------------------|
Guitar 2 continued
E|-------------------8-----5-----------------------|------5----------------|
B|--8---5---8---5----8-----5-----------------------|------5----------------|
G|--9---6---9---6----10----7-----------------------|------6----------------|
D|--10--7---10--7----10----7-----------------------|------7----------------|
A|--10--7---10--7----8-----5-----------------------|------7----------------|
E|--8---5---8---5----------------------------------|------5----------------|
Outro chords Ending chord

| / slide up
| slide down
| h hammer-on
| p pull-off
| ~ vibrato
| + harmonic
| x Mute note
============================================================================

Log In to leave a comment

After registration we will return you to the same place
Comments
face-with-monocle
If you wait a bit, some comments may appear here...

Shhh...