Placebo logo

Come Home Placebo

  • 13
  • Share
  • Transposing
    0
  • Font Size
    15
Placebo – Come Home
Verse/Intro:

C  --------------------------------------------------------------------------
C  --------------------------------------------------------------------------
G# --------------------------------------------------------------------------
D# -9-9--9-9-9-9--9-9-9-9-9--9-9--9-9-9-9------------------------------------
A# -8-8--8-8-8-8--8-8-8-8-8--8-8--8-8-8-8-7-7--7-7-7-7--7-7--7-7-7-7-7-7-7-7-Repeat
F  ---------------------------------------8-8--8-8-8-8--8-8--8-8-8-8-8-8-8-8-

Chorus (This is also played at the very end):

C  ----------------------------------------------------------------
C  ----------------------------------------------------------------
G# ----------------------------------------------------------------
D# -17-17-17-17-17-17-17-17-17-17--9-9-9-9-9-10-10-10-10-10-10-10--
A# ----------------------------------------------------------------Repeat
F  ----------------------------------------------------------------

Weird bit:

C  -0-------0---------------------
C  -0-------0------------------
G# -4-------4------------------
D# -5-------5------------------Repeat
A# ---------0---------------------
F  -------------------------------

When the weird bit picks up:

C  -0-0-0-0--0-0-0-0-0-0-0-0-0-0-0--0--0--0---0------------------
C  -0-0-0-0--0-0-0-0-0-0-0-0-0-0-0--0--0--0---0---------------
G# -4-4-4-4--4-4-4-4-4-4-4-4-4-4-12-12-12-9---9---------------
D# -5-5-5-5--5-5-5-5-5-5-5-5-5-5-12-12-12-9---9---------------Repeat
A# --------------------------------------------------------------
F  --------------------------------------------------------------

Are the strings you need to pluck/strum behind the bridge.

Log In to leave a comment

After registration we will return you to the same place
Comments
face-with-monocle
If you wait a bit, some comments may appear here...

Shhh...