Phil Collins logo

Easy Lover Phil Collins

  • 0
  • Share
  • Font Size
Phil Collins – Easy Lover
Phil Collins - Easy Lover

Please tell me what you think of it; rate my tab

PRE-INTRO:
E|-------|-------|-------|-------|-------|-------|-------|-------|
B|-------|-------|-------|-------|-------|-------|-------|-------|
G|-------|-------|-------|-------|-------|-------|-----6-|--8--10|
D|-4-----|---4-3-|-------|-------|-4-----|---4-3-|-----6-|--8--10|
A|-------|-------|-------|-------|-------|-------|-----4-|--6--8-|
E|-2-----|---2-1-|-------|-------|-2-----|---2-1-|-------|-------|

INTRO:
E||-----8-8-8=|==-------|-----------|------------||
B||-----9-9-9=|==-------|-----------|------------||
G||*=-------|-----------|---------6-|----8----10*||
D||*=-------|-----------|---------6-|----8----10*||
A||==-------|----------8|-8-6---8-4-|----6----8--||
E||-----------|-----------|-----8-----|------------||

CHORUS: -3X-
E||-----------|-----------|-----------|------------||
B||-----------|-----------|-----------|------------||
G||*=-------|-----------|---------6-|----8----10*||
D||*=-------|-----------|---------6-|----8----10*||
A||==-------|----------8|-8-6---8-4-|----6----8--||
E||-----------|-----------|-----8-----|------------||

E|-----------|-----------|-----------|
B|-----------|-----------|-----------|
G|==-------|---------10|=======-|
D|==-------|---------10|=======-|
A|==-------|---------8-|=======-|
E|-----------|-----------|-----------|

VERSE:
E||-----------|-----------|-----------|-----------|
B||-----------|-----------|-----------|-----------|
G||*----------|-----------|-----------|-----------|
D||*----------|-----------|-----------|-----------|
A||-4--3-4----|-4---4-3-4-|----3-4----|-4---4-6--8|
E||-----------|-----------|-----------|-----------|

E|-----------|-----------|-----------|-----------||
B|-----------|-----------|-----------|-----------||
G|-----------|-----------|-----------|----------*||
D|-----------|-----------|-----------|----------*||
A|-8-6---8-6-|-8---8-6--8|-8-6---8---|-8---8-3-4-||
E|-----8-----|-----------|-----8-----|-----------||
2nd time: A|-8--8-3-2-1-|

PRE-CHORUS:
E|---------------|---------------|---------------|---------------|
B|---2---2---2---|---4-----------|---2---2---2---|---4----4-6-6~~|
G|---1---1---1---|--3--h5-h5-3-1~|---1---1---1---|--3--h5--------|
D|-3---3---3---3-|-5-------------|-3---3---3---3-|-5-------------|
A|---------------|---------------|---------------|---------------|
E|---------------|---------------|---------------|---------------|
P.M.=========== P.M.=========

E|---------------|---------------|----------|----------|-----------|
B|---2---2---2---|---4-----------|----------|----------|-----------|
G|---1---1---1---|--3--h5-h5-3-1-|----------|---------6|----8----10|
D|-3---3---3---3-|-5-------------|-4--------|---------6|----8----10|
A|---------------|---------------|----------|---------4|----6----8-|
E|---------------|---------------|-2--------|----------|-----------|
P.M.========

REPEAT CHORUS
REPEAT VERSE
REPEAT PRE-CHORUS , BUT FROM THE 7TH BAR PLAY PRE-INTRO

SOLO:
E|-------------------------------------------------11-----8---------
B|/13=13-13-13-13-13------9~~11-----9-11~~~9----9----11~~-----9~---
G|/13=13-13-13-13-13--/10--------------------10------------10------
D|--------------------------------10------------------------------3/
A|------------------------------------------------------------------
E|------------------------------------------------------------------

E|-8----8----8~-----------------------------------------------12b13
B|-9----9----9~------------------13-13-16-----9-11-11~-9----9------
G|---10---10----------------------13-13-13-/10------------10--------
D|-----------------6-8-8~~6---6---13-13-13--------------------------
A|---------------8----------8---8/----------------------------------
E|------------------------------------------------------------------

(FAST)
E|-11--------------------------------------------------------------
B|----13-11-13-11h12p11-13-11-9----11-9-11h12p11-9-8---------------
G|------------------------------10-------------------10-8-/12-10-8-
D|-----------------------------------------------------------------
A|-----------------------------------------------------------------
E|-----------------------------------------------------------------

E|---------------------------------------------------------------
B|--------------------------------------------8-9-8-11-9-8-12/13-
G|------------------------------------8-9-10---------------------
D|-10-8-10b11r10--8------------8-10-----------------------------
A|-------------------11-8-10-11----------------------------------
E|---------------------------------------------------------------

E|-------------------------------13----13~--13--------------------
B|-11-9-13/14-13-11-/16~~--13-16----16---------16-13----13~-------
G|---------------------------------------------------15-----10-13-
D|----------------------------------------------------------------
A|----------------------------------------------------------------
E|----------------------------------------------------------------

E|--------16------------------16-18-19b20-19b20-19b20-19b20r19-18~~-
B|-/13-16----16-18~-18~18~-18---------------------------------------
G|------------------------------------------------------------------
D|------------------------------------------------------------------
A|------------------------------------------------------------------
E|------------------------------------------------------------------

REPEAT PRE-CHORUS
REPEAT CHORUS FADE OUT

Log In to leave a comment

After registration we will return you to the same place
Comments
face-with-monocle
If you wait a bit, some comments may appear here...

Shhh...