• 0
  • Share
  • Font Size
Pflasterstein – Morgen
Artist: PFLASTERSTEIN
Title: Morgen
Words: Nils Ritter
Email: [email protected]

INTRO (3x)
E|------------------------------|
H|------------------------------|
G|------------------------------|
D|-/9--9--9--9--10--7--7--7--7-|
A|-/9--9--9--9--10--7--7--7--7-|
E|-/7--7--7--7---8--5--5--5--5-|

VERSE
E|----------------------------|
H|----------------------------|
G|----------------------------|
D|-9--9--9--9--10--7--7--7--7-|
A|-9--9--9--9--10--7--7--7--7-|
E|-7--7--7--7---8--5--5--5--5-|

Die besten Freunde, die du hattest
sahen zu wie du fortgegangen bist.
Die Zeit war f?r dich niemals genug.

BRIDGE
E|--------------------------------------------|
H|--------------------------------------------|
G|--------------------------------------------|
D|-2--2---2-2-2---5-5-5-5-5---3-3-3-3-3-3-3-3-|
A|-2--2---2-2-2---5-5-5-5-5---3-3-3-3-3-3-3-3-|
E|-0--0---0-0-0---3-3-3-2-2---1-1-1-1-1-1-1-1-|

Wie wird es morgen sein? (3x)

REFRAIN
E|-------------------------------------|
H|-------------------------------------|
G|-9-9-999-----------7-7-777-----------|
D|-9-9-999--9-9-999--7-7-777--7-7-7777-|
A|-7-7-777--9-9-999--5-5-555--7-7-7777-|
E|----------7-7-777-----------5-5-5555-|

Auf dem Weg in die f?r dich bedeutende Freiheit,
fehlten sie denn sie wussten nicht was du wolltest.
Niemand verstand dich und daran sollte sich nichts ?ndern,
so lange du hier gewesen bist.

-> BRIDGE

VERSE
E|----------------------------|
H|----------------------------|
G|----------------------------|
D|-9--9--9--9--10--7--7--7--7-|
A|-9--9--9--9--10--7--7--7--7-|
E|-7--7--7--7---8--5--5--5--5-|

Nicht genau wussten sie, ob du jemals umкенrеn w?rdest.
Den Anschein hatte es nicht, niemals.
Doch irgendwann к?nnte es so sein,
wie du es immer haben wolltest.

-> BRIDGE (ohne Vocals)

-> REFRAIN

-> BRIDGE

OUTRO
E|------------------------------|
H|------------------------------| Das Outro wird mit dem Рlектrum
G|------------------------------| dirект am Steg gespielt, mit dem
D|-/9--9--9--9--10--7--7--7--7-| Nескрiскuр. Das Riff wird 5x gespielt.
A|-/9--9--9--9--10--7--7--7--7-|
E|-/7--7--7--7---8--5--5--5--5-|

~~~~~~~~~~~~~~~~~~~~~~~~~~~~
~~~~~~~~~~~~~~~~~~~~~~~~~~~~

Log In to leave a comment

After registration we will return you to the same place
Comments
face-with-monocle
If you wait a bit, some comments may appear here...

Shhh...

Most Popular