Petty Tom logo

Mary Janes Last Dance Petty Tom

  • 0
  • Share
  • Font Size
Petty Tom – Mary Janes Last Dance
Artist: Tom Petty And The Heartbreakers
Song: Mary Jane's Last Dance
Tabbed by: Ryan ([email protected])

It's in standard tuning (E, A, D, G) low to high

You have to listen to the song for the timing and the amount of times it
Gets played

VERSE
G-------------------------
D-------------------------
A----------5--------------
E--5--3-3----5-5----------

CHORUS
G------------------------------------------
D------------------------------------------
A--5--5-5--5--5-5--------------------------
E------------------5-5--7/9-12-97-5-------

Any questions or comments on this tab e-mail me at [email protected]

Log In to leave a comment

After registration we will return you to the same place
Comments
face-with-monocle
If you wait a bit, some comments may appear here...

Shhh...