Loading...
Pennywise logo

Whos On Your Side Pennywise

  • 0
  • Share
  • Font Size
Pennywise – Whos On Your Side
Pennywise - Who`s on your side?

=Guitar/1=
Intro
E----------------------------------------------------
B----------------------------------------------------
G----------------------------------------------------
D----2-2-2-2-2-2-2-2-5-5-5-4-4-4-4-4-----------------
A----2-2-2-2-2-2-2-2-5-5-5-4-4-4-4-4---4x------------
E----0-0-0-0-0-0-0-0-3-3-3-2-2-2-2-2-----------------
[---------Palm-Mute-------------]

E----------------------------------------------------
B----------------------------------------------------
G----------------------------------------------------
D----2-2-2-2-2-2-2-2-2-2-2-2-2-2-2-2-----------------
A----2-2-2-2-2-2-2-2-2-2-2-2-2-2-2-2-----------------
E----0-0-0-0-0-0-0-0-0-0-0-0-0-0-0-0-----------------

=Guitar/2=
Intro
E----------------------------------------------------------------------
B----------------------------------------------------------------------
G--9-9-9-9-9-9-9-9-9-16-16-16--14-14-14-14-14-13-13-13-13-13-13-13-13--
D----------------------------------------------------------------------
A--7-7-7-7-7-7-7-7-7-14-14-14--12-12-12-12-12-11-11-11-11-11-11-11-11--
E----------------------------------------------------------------------

E-----------------------------------------------------------
B-----------------------------------------------------------
G-7-7-7-9-9-9-9-9-4-4-4-4-4-4-4-4--16-16-16-14-14-14-14-14--
D-----------------------------------------------------------
A-5-5-5-7-7-7-7-7-2-2-2-2-2-2-2-2--14-14-14-12-12-12-12-12--
E-----------------------------------------------------------

E------------------------------------------------------------------------
B------------------------------------------------------------------------
G-13-13-13-13-13-13-13-13-7-7-7-9-9-9-9-9-4-4-4-4-4-4-4-9-9-9-9-9-9-9-9--
D------------------------------------------------------------------------
A-11-11-11-11-11-11-11-11-5-5-5-7-7-7-7-7-2-2-2-2-2-2-2-7-7-7-7-7-7-7-7--
E------------------------------------------------------------------------

=Guitar/1=
Chorus
E----------------------------------------------------
B----------------------------------------------------
G----9-9-9-9-----------7-7-7-7-----------------------
D----9-9-9-9--5-5-5-5--7-7-7-7--9-9-9-9----3x--------
A----7-7-7-7--5-5-5-5--5-5-5-5--9-9-9-9--------------
E-------------3-3-3-3-----------7-7-7-7--------------

E----------------------------------------------------
B----------------------------------------------------
G----------------------------------------------------
D----7-7-7-7-7-7-7--9-9-9-9-9-9-9--------------------
A----7-7-7-7-7-7-7--9-9-9-9-9-9-9--------------------
E----5-5-5-5-5-5-5--7-7-7-7-7-7-7--------------------

=Guitar/2=
Chorus
E--------------------------------------------------------------------------
B--------------------------------------------------------------------------
G--9-9-7-9-7-9-7--9-9-7-9-7-9-7--9/13-13-13-13-13-13-14-14-14-14-14-14-14--
D--------------------------------------------------------------------------
A--7-7-5-7-5-7-5--7-7-5-7-5-7-5--7/11-11-11-11-11-11-12-12-12-12-12-12-12--
E--------------------------------------------------------------------------

Verse/1
E----------------------------------------------------
B----------------------------------------------------
G----------------------7-7-7-7--4-4-4-4--------------
D----2-2-2-2--5-5-5-5--7-7-7-7--4-4-4-4--------------
A----2-2-2-2--5-5-5-5--5-5-5-5--2-2-2-2--------------
E----0-0-0-0--3-3-3-3--------------------------------
[-----------Palm-Mute--------------]

Verse/2
E------------------------------------------------------------------------
B------------------------------------------------------------------------
G----9-9-9-9-9-9-9-9-------------------7-7-7-7-7-7-7-7-------------------
D----9-9-9-9-9-9-9-9--5-5-5-5-5-5-5-5--7-7-7-7-7-7-7-7--9-9-9-9-9-9-9-9--
A----7-7-7-7-7-7-7-7--5-5-5-5-5-5-5-5--5-5-5-5-5-5-5-5--9-9-9-9-9-9-9-9--
E---------------------3-3-3-3-3-3-3-3-------------------7-7-7-7-7-7-7-7--

Bridge
E----------------------------------------------------
B----------------------------------------------------
G----------------------------------------------------
D----2-2-2-2-2-2-2-2-2-2-2-2-2-2-2-2-----------------
A----2-2-2-2-2-2-2-2-2-2-2-2-2-2-2-2-----------------
E----0-0-0-0-0-0-0-0-0-0-0-0-0-0-0-0-----------------

Verse/3
E----------------------------------------------------
B----------------------------------------------------
G----5-5-5--7-7-7--9-9-9-9-9-9-9-9-------------------
D----5-5-5--7-7-7--9-9-9-9-9-9-9-9-------------------
A----3-3-3--5-5-5--7-7-7-7-7-7-7-7-------------------
E----------------------------------------------------

Bridge/2
E----------------------------------------------------
B----------------------------------------------------
G----5-5-5-5-5-5-5--7-7-7-7-7-7-7--------------------
D----5-5-5-5-5-5-5--7-7-7-7-7-7-7--------------------
A----3-3-3-3-3-3-3--5-5-5-5-5-5-5--------------------
E----------------------------------------------------

Intro
Chorus
Verse/1 2x
Verse/2 2x
Chorus 2x
Verse/1 2x
Verse/2 2x
Chorus 2x
Bridge
Verse/3 3x
Bridge/2
Chorus 2x

GABRIEL GOG - BRASIL
LIFE 4 FUN

Log In to leave a comment

After registration we will return you to the same place
Comments
face-with-monocle
If you wait a bit, some comments may appear here...

Shhh...

Most Popular
You Might Like