Pennywise logo

Something Wrong With Me Pennywise

  • 0
  • Share
  • Font Size
Pennywise – Something Wrong With Me
Pennywise-somethings wrong with me-land of the free
Play it quite fast and give it a good distortion.
//-pick slide
X-palm mute
~-let it ring
intro
E--------------------------------
B--------------------------------
G-----5-----7-------------------- play 4 times
D--3--5--5--7--7-----------------
A--3--3--5--5--7(x8)-------------
E--1-----3-----5-----------------

verse
E---------------------------------------------------------------
B---------------------------------------------------------------
G---------5---------------------5-------------7-----------------
D--7------5------5------7-------5------5------7------7----------
A--7(x8)--3(x8)--5(x8)--7(x16)--3(x8)--5(x4)--5(x4)--7~~-//---
E--5-------------3------5--------------3-------------5----------
x x x x x x x

Now play verse again(minus pick slide) with out any mute.

Now play intro twice.

no.3 thing
E-------------------------------------
B-------------------------------------
G----------------9--------------------
D--3------5------9--------------------
A--3(x8)--5(x8)--7(x16)-//----------
E--1------3---------------------------

Now play the verse with mutes then without the mutes,
Then play the intro twice.
Now play the no.3 thing (i dont what you'd call it).

no.4
E-----------------------------------------------------
B-----------------------------------------------------
G---------5------7--------------5------7--------------
D--7------5------7------7-------5------7------7-------
A--7(x8)--3(x8)--5(x8)--7(x16)--3(x8)--5(x8)--7(x8)---
E--5--------------------5---------------------5-------

Now play the intro twice
Then play the no.3 thing once.
Now play the verse once.

Sorry,i don't know the solo.

Now play the intro twice
Then the no.3 thing once then the no.4 bit
Lastly play the intro 4 times
But only play the very last chord of the song 5 times and don't let it ring

I hope you find this helpfull ect. as it is only my first ever tab.
Please rate it, thank you
P.s go kick some ass on your guitar.

Log In to leave a comment

After registration we will return you to the same place
Comments
face-with-monocle
If you wait a bit, some comments may appear here...

Shhh...

Most Popular
You Might Like