Pennywise logo

God Save The Usa Pennywise

  • 1
  • Share
  • Font Size
    15
Pennywise – God Save The Usa
Intro

|-------|
|-------|
|-------|
|-12-12-|
|-10-10-|

|--------------------------------------|   |---------------------|
|--------------------------------------|   |---------------------|
|--------------------------------------|   |---------------------|
|-----3---5-----8---10-----888-----555-|x2 |-------12-12-12-12---|
|-555-1-3-3-555-6-8-8--555-666-888-333-|   |-55555-10-10-10-10---|
|-333---1---333---6----333-----666-----|   |-33333---------------|

Verse 1

|------------------------------|
|------------------------------|
|------------------------------|
|-------------88888-55555-8-10-|
|-55555-88888-66666-33333-6-8--|
|-33333-66666------------------|

Verse 2

|-------------------------------------|
|-------------------------------------|
|-------------------------------------|
|----------------------------88-10-10-|
|-55555-88888-10-10-10-10-10-66-8--8--|
|-33333-66666-8--8--8--8--8-----------|

Chorus

|----------------------------||---------------------|
|----------------------------||---------------------|
|----------------------------||---------------------|
|------8888------10-10-10-10-||------8888-----------|
|-5555-6666-8888-8--8--8--8--||-5555-6666-8888-3333-|
|-3333------6666-------------||-3333------6666-1111-|

That's it, pretty simple, later.

Log In to leave a comment

After registration we will return you to the same place
Comments
face-with-monocle
If you wait a bit, some comments may appear here...

Shhh...