Loading...
Pennywise logo

Fuck Authority Pennywise

  • 0
  • Share
  • Transposing
    0
  • Font Size
Band: Pennywise
CD Title: Land Of The Free?
Song Title: Fuck Authority
Tabbed By Nali182

Intro
E|---------------------------------------------------------------|
B|---------------------------------------------------------------|
G|---------------------------------------------------------------|
D|---------------533-333-333-332-------------5--------88-101010--|
A|--55-555-555-55311-111-111-11033-333-333-33355-5555-66--8-8-8--|
E|--33-333-333-33---------------11-111-111-11-33-3333------------|

Verse (Someday, you gotta find another way)
E|---------------------------------------------------------------|
B|---------------------------------------------------------------|
G|---------------------------------------------------------------|
D|----------5333333332--------5-----88-101010--------------------|
A|--5555555531111111103333333335555-66--8-8-8--------------------|
E|--33333333----------11111111-3333------------------------------|
PM ....... ....... ....... ...

E|---------------------------------------------------------------|
B|---------------------------------------------------------------|
G|---------------------------------------------------------------|
D|----------533333332-------5------------------------------------|
A|--55555555311111110333333335555555-----------------------------|
E|--33333333---------1111111-3333333-----------------------------|
PM ...... ...... ...... ......

Pre Chorus (i say fuck authority)
E|---------------------------------------------------------------|
B|---------------------------------------------------------------|
G|---------------------------------------------------------------|
D|----------3333333355555555-------------------------------------|
A|--55555555111111113333333355555555-----------------------------|
E|--33333333----------------33333333-----------------------------|
PM ....... ....... ....... .......

E|---------------------------------------------------------------|
B|---------------------------------------------------------------|
G|---------------------------------------------------------------|
D|----------3333333355555555-------------------------------------|
A|--55555555111111113333333355555555-----------------------------|
E|--33333333----------------33333333-----------------------------|
PM ....... ....... .......

Chorus (Frustration, domintaion, feel the rage of a new generation)
E|---------------------------------------------------------------|
B|---------------------------------------------------------------|
G|---------------------------------------------------------------|
D|----------3333333355555555-------------------------------------|
A|--55555555111111113333333355555555-----------------------------|
E|--33333333----------------33333333-----------------------------|

E|---------------------------------------------------------------|
B|---------------------------------------------------------------|
G|---------------------------------------------------------------|
D|----------3333333355555555-------------------------------------|
A|--555555551111111133333333-------------------------------------|
E|--33333333-----------------------------------------------------|

Post Chorus (Stop Trying!)
E|---------------------------------------------------------------|
B|---------------------------------------------------------------|
G|---------------------------------------------------------------|
D|--53----8888----5555----8888-----------------------------------|
A|--3155556666555533335555666655555555---------------------------|
E|----3333----3333----3333----33333333---------------------------|
PM ........

Fill
E|---------------------------------------------------------------|
B|---------------------------------------------------------------|
G|---------------------------------------------------------------|
D|--53--------1010101010-----------------------------------------|
A|--3155555555---------------------------------------------------|
E|----33333333------------Pickslide------------------------------|

E|---------------------------------------------------------------|
B|---------------------------------------------------------------|
G|---------------------------------------------------------------|
D|--8888----------------8888-------------------------------------|
A|--6666888810855555555-6666888810855555555----------------------|
E|------6666-8633333333-----6666-8633333333----------------------|
PM ... ...

E|---------------------------------------------------------------|
B|---------------------------------------------------------------|
G|---------------------------------------------------------------|
D|--888810101010-------------888810101010---1414141414-----------|
A|--6666-8-8-8-888810555555556666-8-8-8-88101212121212-----------|
E|--------------666-833333333------------6-8---------------------|
PM ...

BREAKDOWN
Intro x2
Verse
Pre Chorus
Chorus
Post Chorus
Verse
Pre Chorus
Chorus x2
Fill
Bass only x1
Pre Chorus (half of)
Chorus
Post Chorus
End on G

Log In to leave a comment

After registration we will return you to the same place
Comments
face-with-monocle
If you wait a bit, some comments may appear here...

Shhh...

Most Popular
You Might Like