Pennywise logo

Cant Take Anymore Pennywise

  • 1
  • Share
  • Font Size
Pennywise – Cant Take Anymore
T1: Bryon Brown, [email protected], Pennywise, Can't Take Anymore

S2: I'm doing this from memory so it will not be perfect. If you have
Corrections e-mail me.

S1:
Bass Intro
G|--------------------------------------------------------|
D|--------------------------------------------------------|
A|--------5----5----5----3----5---3----3----1----1----3---|
E|--1/3-3--3-3--3-3--3-3--3-3---1--1-1--1-1--1-1--1-1-----|

E|----------------------------------------|
B|----------------------------------------|
G|----------------------------------------|
D|--5-5-5-5-5-5-5-5--5-5-5-5-5-5-5-3-let--|
A|--5-5-5-5-5-5-5-5--5-5-5-5-5-5-5-3-it---|
E|--3-3-3-3-3-3-3-3--3-3-3-3-3-3-3-1-ring-|
pm.... .. ..... ...

E|----------------------------------|--------|--------------|
B|----------------------------------|--------|--------------|
G|-----------3-3-3------------------|--8-8-7-|--3-3-3-3-5-7-|
D|--5-5-5-5--3-3-3--3-3-3-3-3-3-3-3-|--8-8-7-|--3-3-3-3-5-7-|
A|--5-5-5-5--1-1-1--3-3-3-3-3-3-3-3-|--6-6-5-|--1-1-1-1-3-5-|
E|--3-3-3-3---------1-1-1-1-1-1-1-1-|--------|--------------|

You'll have to listen to the song because the palm mutes change, and
When they stop the first part above is:
G-----------3-3-3-----------5-5-5-5-|
D--5-5-5-5--3-3-3--3-3-3-3--5-5-5-5-|
A--5-5-5-5--1-1-1--3-3-3-3--3-3-3-3-|
E--3-3-3-3---------1-1-1-1----------|

E|---------------------------------|
B|---------------------------------|
G|--8-8-----4-3-2------------------|
D|--8-8--3--4-3-2--5-5555-5-5555-8-|chorus
A|--6-6--3--2-1-0--5-5555-5-5555-8-|
E|-------1---------3-3333-3-3333-6-|
pm....
Hypocracy and unity....

E|-------------------------------------|
B|-------------------------------------|
G|--8-8-8-8--5-5-5-5-------------------|
D|--8-8-8-8--5-5-5-5--3-3-3-3--5-5-5-5-|
A|--6-6-6-6--3-3-3-3--3-3-3-3--5-5-5-5-|
E|--------------------1-1-1-1--3-3-3-3-|

Back to chorus but it's played

E|----------------------------------|------------------|
B|----------------------------------|------------------|
G|--8-8-5-4-3-2----------8--10-]----|--12-12-12-12-12--|add
D|--8-8-5-4-3-2--5-5555--8--10-]-x3-|--12-12-12-12-12--|4th
A|--6-6-3-2-1-0--5-5555--6--8--]----|--10-10-10-10-10--|time
E|---------------3-3333--------]----|------------------|
pm....

It's a little strange but it's close

Log In to leave a comment

After registration we will return you to the same place
Comments
face-with-monocle
If you wait a bit, some comments may appear here...

Shhh...

Most Popular
You Might Like