Loading...
Pennywise logo

Alien Pennywise

  • 0
  • Share
  • Transposing
    0
  • Font Size
------------------------------------------------------------------------
Alien-Pennywise
------------------------------------------------------------------------

By:[email protected]
Intro
E|--------------------------------------------------------------------|
B|--------------------------------------------------------------------|
G|--------14-12-------------14-15-----------------------------------
D|-5-5-5------------13-13-13------------------------------------------
A|-5-5-5--12-10----13-13-13-12-13------------------------------------
E|-3-3-3------------11-11-11------------------------------------------
Verse
E|--------------------------------------------------------------------|
B|--------------------------------------------------------------------|
G|----------7-7-7-7--8-8-8-8------------------------------------------
D|-5-5-5-5--7-7-7-7--8-8-8-8--8-8-8-8---------------------------------
A|-5-5-5-5--5-5-5-5--6-6-6-6--8-8-8-8----------------------------------
E|-3-3-3-3--------------------6-6-6-6----------------------------------
Chorus
E|-------------------------------------------------------------------
B|--------------------------------------------------------------------|
G|-8-8-8 8-8-8-8--10-10-10-10-10-10-10--7-7-7-7-7-7-7-----------------
D|-8-8-8-8-8-8-8--10-10-10-10-10-10-10--7-7-7-7-7-7-7--5-5-5-5-5-5-5--
A|-6-6-6-6-6-6-6---8--8--8--8--8--8--8--5-5-5-5-5-5-5--5-5-5-5-5-5-5--
E|-----------------------------------------------------3-3-3-3-3-3-3-
Solo
E|--------------------------------------------------------------------|
B|--------------------------------------------------------------------|
G|12-12-12-12-12-12-12-15-15-15-15-15--15-15--12-12--12-12-12-12--12--
D|--------------------------------------------------------------------|
A|--------------------------------------------------------------------|
E|--------------------------------------------------------------------|

E|--------------------------------------------------------------------|
B|-16--16--16-16-16-16-16--------play twice---------------------------
G|--------------------------------------------------------------------|
D|--------------------------------------------------------------------|
A|--------------------------------------------------------------------|
E|--------------------------------------------------------------------|

E|--------------------------------------------------------------------|
B|--------------------------------------------------------------------|
G|12-----12----12-15-14----12----12----12--15-14-17--12-----12----12------------------------------|
D|---12-----12----------15----12----12------------------12-----12-------------------|
A|--------------------------------------------------------------------|
E|--------------------------------------------------------------------|

E|--------------------------------------------------------------------|
B|--------------------------------------------------------------------|
G|-15-14-----17--15-14--15--17-15-14--12--------------------------------------------------|
D|-------15-------------------------------------------------------------|
A|--------------------------------------------------------------------|
E|--------------------------------------------------------------------|
Outro Ending
E|--------------------------------------------------------------------|
B|--------------------------------------------------------------------|
G|-----------------8-8-8-8-8-8-8---------------------------------------------|
D|-5-5-5-5-5-5-5---8-8-8-8-8-8-8---------------------5-----------------------------|
A|-5-5-5-5-5-5-5---6-6-6-6-6-6-8---------------------5------------------------------|
E|-3-3-3-3-3-3-3-------------------------------------3------------------------|

========================================================================

Log In to leave a comment

After registration we will return you to the same place
Comments
face-with-monocle
If you wait a bit, some comments may appear here...

Shhh...