Pearl Jam logo

Alive Pearl Jam

  • 0
  • Share
  • Font Size
Pearl Jam – Alive
#----------------------------------PLEASE NOTE--------------------------------#
#This file is the author's own work and represents their interpretation of the#
#song. You may only use this file for private study, scholarship, or research.#
#-----------------------------------------------------------------------------#
#-----------------------------------------------------------------------------#

Author/Artist: Pearl Jam
Title: Alive
Album: Ten
Transcribed by: Evan Cowan
Email: [email protected]

Updated 08/09/99
Lyrics are not lined up perfectly

-|---------|---------------------------|--------------------------|-----------
-|---------|---------------------------|--------------------------|-----------
-|-------0-|-2-------------------2-2-2-|-2----------------------0-|-----------
-|-----0---|-2----0h7h9---7vvvv--2-2-2-|-2----0h7h9--7-9b10r9-7-0-|-----------
-|-10-----|-0-/7----------------0-0-0-|-0-/7---------------------|-----------
-|---------|---------------------------|--------------------------|-----------
Intro, G1

-|---------------------------|--------------------------|---------------------
-|---------------------------|--------------------------|---------------------
-|-2-------------------0-0-0-|-2----------------------0-|---------------------
-|-2----0h7h9---7vvvv--0-0-0-|-2----0h7h9--7-9b10r9-7-0-|---------------------
-|-0-/7----------------0-0-0-|-0-/7---------------------|---------------------
-|---------------------------|--------------------------|---------------------
G1

-|-5--------5----------------|-5--------5---------------|---------------------
-|-5--------5----------------|-5--------5---------------|---------------------
-|-6--------7----------------|-6--------6---------------|---------------------
-|-7--------7----------------|-7--------7---------------|---------------------
-|-x--------x----------------|-x--------x---------------|---------------------
-|*5-------*5----------------|*5-------*5---------------|---------------------
G2 *fret w/ thumb

-|---------------------------|--------------------------|---------------------
-|---------------------------|--------------------------|---------------------
-|-2-------------------0-0-0-|-2----------------------0-|---------------------
-|-2----0h7h9---7vvvv--0-0-0-|-2----0h7h9--7-9b10r9-7-0-|---------------------
-|-0-/7----------------0-0-0-|-0-/7---------------------|---------------------
-|---------------------------|--------------------------|---------------------
G1

-|-5--5-5---5--------5-5-5---|-5--5-5---5--5-5----5-5-5-|---------------------
-|-5--5-5---5--------5-5-5---|-5--5-5---5--5-5----5-5-5-|---------------------
-|-6--6-6---7--------6-6-6---|-6--6-6---7--7-7----6-6-6-|---------------------
-|-7--7-7---7--------7-7-7---|-7--7-7---7--7-7----7-7-7-|---------------------
-|-x--x-x---x--------x-x-x---|-x--x-x---x--x-x----x-x-x-|---------------------
-|-5--5-5---5--------5-5-5---|-5--5-5---5--5-5----5-5-5-|---------------------
G2 *same as before

-|---------------------------|--------------------------|-------------------|-
-|---------------------------|--------------------------|--------------8----|-
-|-2-------------------0-0-0-|-2----------------------0-|-10-10-10-10-----9-|-
-|-2----0h7h9---7vvvv--0-0-0-|-2----0h7h9--7-9b10r9-7-0-|-10-10-10-10----10-|-
-|-0-/7----------------0-0-0-|-0-/7---------------------|-------------------|-
-|---------------------------|--------------------------|-------------------|-
G1

-|-5--5-5---5--------5-5-5---|-5--5-5---5--5-5----5-5-5-|--1--1--1--1--0--0-|-
-|-5--5-5---5--------5-5-5---|-5--5-5---5--5-5----5-5-5-|--1--1--1--1--1--1-|-
-|-6--6-6---7--------6-6-6---|-6--6-6---7--7-7----6-6-6-|--2--2--2--2--0--0-|-
-|-7--7-7---7--------7-7-7---|-7--7-7---7--7-7----7-7-7-|--3--3--3--3--2--2-|-
-|-x--x-x---x--------x-x-x---|-x--x-x---x--x-x----x-x-x-|--x--x--x--x--3--3-|-
-|-5--5-5---5--------5-5-5---|-5--5-5---5--5-5----5-5-5-|--1--1--1--1-------|-
G2

-|-----------------------------|--------------------------|-------------------
-|-----------------------------|--------------------------|-------------------
-|-----------------------------|--------------------------|-------------------
-|------0h7h9---7vvvv----------|------0h7h9--7-9b10r9-7---|-------------------
-|-0-/7--------------------0-0-|-0-/7-------------------0-|-------------------
-|-----------------------------|--------------------------|-------------------
G1 Son__________ she said have I got a little story for you

-|-5--5-5---5---------5----5---|-5--5-5---5--5-5----5-5-5-|-------------------
-|-5--5-5---5---------5----5---|-5--5-5---5--5-5----5-5-5-|-------------------
-|-6--6-6---7---------7----7---|-6--6-6---7--7-7----6-6-6-|-------------------
-|-7--7-7---7---------7----7---|-7--7-7---7--7-7----7-7-7-|-------------------
-|-x--x-x---x---------x----x---|-x--x-x---x--x-x----x-x-x-|-------------------
-|-5--5-5---5---------5----5---|-5--5-5---5--5-5----5-5-5-|-------------------
G2

-|------------------------------|--------------------------|------------------
-|------------------------------|--------------------------|------------------
-|------------------------------|--------------------------|------------------
-|------0h7h9------7vvvv--------|-2----0h7h9--7-9b10r9-7-0-|------------------
-|-0-/7---------------------0-0-|-0-/7---------------------|------------------
-|------------------------------|--------------------------|------------------
G1 What you thought... daddy was nothin but a...

-|-5--5-5---5-----------5---5---|-5--5-5---5--5-5----5-5-5-|------------------
-|-5--5-5---5-----------5---5---|-5--5-5---5--5-5----5-5-5-|------------------
-|-6--6-6---7-----------7---7---|-6--6-6---7--7-7----6-6-6-|------------------
-|-7--7-7---7-----------7---7---|-7--7-7---7--7-7----7-7-7-|------------------
-|-x--x-x---x-----------x---x---|-x--x-x---x--x-x----x-x-x-|------------------
-|-5--5-5---5-----------5---5---|-5--5-5---5--5-5----5-5-5-|------------------
G2

-|--------------------------------|--------------------------|----------------
-|--------------------------------|--------------------------|----------------
-|--------------7vvvv-------------|--------------------------|----------------
-|-2----0h7h9---------------------|-2----0h7h9--7-9b10r9-7---|----------------
-|-0-/7-----------------------0-0-|-0-/7-------------------0-|----------------
-|--------------------------------|--------------------------|----------------
G1 While you were sitting home alone at age thirteen...

-|-5--5-5---5-------------5---5---|-5--5-5---5--5-5----5-5-5-|----------------
-|-5--5-5---5-------------5---5---|-5--5-5---5--5-5----5-5-5-|----------------
-|-6--6-6---7-------------7---7---|-6--6-6---7--7-7----6-6-6-|----------------
-|-7--7-7---7-------------7---7---|-7--7-7---7--7-7----7-7-7-|----------------
-|-x--x-x---x-------------x---x---|-x--x-x---x--x-x----x-x-x-|----------------
-|-5--5-5---5-------------5---5---|-5--5-5---5--5-5----5-5-5-|----------------
G2

-|----------------------------------|--------------------------|--------------
-|----------------------------------|--------------------------|--------------
-|-2-----------------------0--0---0-|-2------------------------|--------------
-|-2----0h7h9--------7vvvv-0--0---0-|-2----0h7h9--7-9b10r9-7-0-|--------------
-|-0-/7--------------------0--0---0-|-0-/7---------------------|--------------
-|----------------------------------|--------------------------|--------------
G1 Your real dad-dy was dy--ing sorry you didn't

-|-5--5-5---5-------------5---5-----|-5--5-5---5--5-5----5-5-5-|--------------
-|-5--5-5---5-------------5---5-----|-5--5-5---5--5-5----5-5-5-|--------------
-|-6--6-6---7-------------7---7-----|-6--6-6---7--7-7----6-6-6-|--------------
-|-7--7-7---7-------------7---7-----|-7--7-7---7--7-7----7-7-7-|--------------
-|-x--x-x---x-------------x---x-----|-x--x-x---x--x-x----x-x-x-|--------------
-|-5--5-5---5-------------5---5-----|-5--5-5---5--5-5----5-5-5-|--------------
G2

-|--------------------------------------|---------------------|---------------
-|----------------8---------------------|---------------8-----|---------------
-|--10-10-10-10------9----10--9---------|-10-10-10-10------9--|---------------
-|--10-10-10-10-----10----10-10---------|-10-10-10-10-----10--|---------------
-|--------------------------------------|---------------------|---------------
-|--------------------------------------|---------------------|---------------
G1 See him but I'm glad we talked Ohh

-|---1--1--1--1---0--0------0-0-------0-|--1--1--1--1---0--0--|---------------
-|---1--1--1--1---1--1------1-1-3--3--1-|--1--1--1--1---1--1--|---------------
-|---2--2--2--2---0--0------0-0-0--0--0-|--2--2--2--2---0--0--|---------------
-|---3--3--3--3---2--2------2-2-2--2--2-|--3--3--3--3---2--2--|---------------
-|---x--x--x--x---3--3------3-3-3--3--3-|--x--x--x--x---3--3--|---------------
-|---1--1--1--1-------------------------|--1--1--1--1---------|---------------
G2

-|-------------------------------------------------------------------|--------
-|------------7------8---------------7---8-7-10-8-7------------------|--------
-|--9-9-9-9-9-7------0----11/12------7--------------9----------------|--------
-|--9-9-9-9-9-7------9-----x---------7-------------------11--9-------|--------
-|--7-7-7-7-7-------10-----9/10------0--------------------------0----|--------
-|-------------------------------------------------------------------|--------
G1 I__________ Oh_____________ I'm still alive hey_______ 2x

-|--0-----0-0-0-0-0--3---3-3--3-3-3--2---2-2--2-2-2-0-----0-0-0-0-0--|--------
-|--0-----0-0-0-0-0--3---3-3--3-3-3--3---3-3--3-3-3-2-----2-2-2-2-2--|--------
-|--1-----1-1-1-1-1--0---0-0--0-0-0--2---2-2--2-2-2-2-----2-2-2-2-2--|--------
-|--2-----2-2-2-2-2--0---0-0--0-0-0--0---0-0--0-0-0-2-----2-2-2-2-2--|--------
-|--2-----2-2-2-2-2--2---2-2--2-2-2-----------------0-----0-0-0-0-0--|--------
-|--0-----0-0-0-0-0--3---3-3--3-3-3----------------------------------|--------
G2 2x

-|----------------------------------------------------------------------|-----
-|------------7------8---------------7---8-7-10-8-7---------------------|-----
-|--9-9-9-9-9-7------0----11/12------7--------------9-------------------|-----
-|--9-9-9-9-9-7------9-----x---------7-------------------11-----7h9-9vv-|-----
-|--7-7-7-7-7-------10-----9/10------0-----------------------0----------|-----
-|----------------------------------------------------------------------|-----
G1 I________ Oh_____________ I'm still alive hey__ ohhh

-|--0-----0-0-0-0-0--3---3-3--3-3-3--2---2-2--2-2-2-0-----0-0-0-0-0-----|-----
-|--0-----0-0-0-0-0--3---3-3--3-3-3--3---3-3--3-3-3-2-----2-2-2-2-2-----|-----
-|--1-----1-1-1-1-1--0---0-0--0-0-0--2---2-2--2-2-2-2-----2-2-2-2-2-----|-----
-|--2-----2-2-2-2-2--0---0-0--0-0-0--0---0-0--0-0-0-2-----2-2-2-2-2-----|-----
-|--2-----2-2-2-2-2--2---2-2--2-2-2-----------------0-----0-0-0-0-0-----|-----
-|--0-----0-0-0-0-0--3---3-3--3-3-3-------------------------------------|-----
G2

-|----------------------------------|-----------------------------------------
-|-12-12-12-12--12-12-12-12--12-12--|-----------------------------------------
-|-11-11-11-11--11-11-11-11--11-11--|-----------------------------------------
-|--9--9--9--9---9--9--9--9---9--9--|-----------------------------------------
-|--9--9--9--9---9--9--9--9---9--9--|-----------------------------------------
-|--------------11-11-11-11--11-11--|-----------------------------------------
G1+G2 Ohhhh

-|----------------------------------|--------------------------|--------------
-|----------------------------------|--------------------------|--------------
-|----------------------------------|--------------------------|--------------
-|------0h7h9---------7vvvv---------|------0h7h9--7-9b10r9-7-0-|--------------
-|-0-/7-------------------------0-0-|-0-/7---------------------|--------------
-|----------------------------------|--------------------------|--------------
G1 While she walked slowly across a young man's room

-|-5--5-5---5--------------5---5----|-5--5-5---5--5-5----5-5-5-|--------------
-|-5--5-5---5--------------5---5----|-5--5-5---5--5-5----5-5-5-|--------------
-|-6--6-6---7--------------6---6----|-6--6-6---7--7-7----7-7-7-|--------------
-|-7--7-7---7--------------7---7----|-7--7-7---7--7-7----7-7-7-|--------------
-|-x--x-x---x--------------x---x----|-x--x-x---x--x-x----x-x-x-|--------------
-|-5--5-5---5--------------5---5----|-5--5-5---5--5-5----5-5-5-|--------------
G2

-|----------------------------|--------------------------|--------------------
-|----------------------------|--------------------------|--------------------
-|----------------------------|--------------------------|--------------------
-|------0h7h9---7vvvv---------|------0h7h9--7-9b10r9-7-0-|--------------------
-|-0-/7------------------x--x-|-0-/7---------------------|--------------------
-|----------------------------|--------------------------|--------------------
G1 She said I'm ready for you

-|-5--5-5---5---------5--5----|-5--5-5---5--5-5----5-5-5-|--------------------
-|-5--5-5---5---------5--5----|-5--5-5---5--5-5----5-5-5-|--------------------
-|-6--6-6---7---------7--7----|-6--6-6---7--7-7----7-7-7-|--------------------
-|-7--7-7---7---------7--7----|-7--7-7---7--7-7----7-7-7-|--------------------
-|-x--x-x---x---------x--x----|-x--x-x---x--x-x----x-x-x-|--------------------
-|-5--5-5---5---------5--5----|-5--5-5---5--5-5----5-5-5-|--------------------
G2

-|--------------------------|--------------------------|----------------------
-|--------------------------|--------------------------|----------------------
-|--------------7vvvv-------|--------------------------|----------------------
-|------0h7h9---------------|------0h7h9--7-9b10r9-7-0-|----------------------
-|-0-/7-----------------0-0-|-0-/7---------------------|----------------------
-|--------------------------|--------------------------|----------------------
G1 I can't remember anything to this very day

-|-5--5-5---5-------5--5----|-5--5-5---5--5-5----5-5-5-|----------------------
-|-5--5-5---5-------5--5----|-5--5-5---5--5-5----5-5-5-|----------------------
-|-6--6-6---7-------7--7----|-6--6-6---7--7-7----7-7-7-|----------------------
-|-7--7-7---7-------7--7----|-7--7-7---7--7-7----7-7-7-|----------------------
-|-x--x-x---x-------x--x----|-x--x-x---x--x-x----x-x-x-|----------------------
-|-5--5-5---5-------5--5----|-5--5-5---5--5-5----5-5-5-|----------------------
G2

-|---------------------------|--------------------------|---------------------
-|---------------------------|--------------------------|---------------------
-|-2-------------------0-0-0-|-2------------------------|---------------------
-|-2----0h7h9---7vvvv--0-0-0-|-2----0h7h9--7-9b10r9-7-0-|---------------------
-|-0-/7----------------0-0-0-|-0-/7---------------------|---------------------
-|---------------------------|--------------------------|---------------------
G1 'Cept the look the look ohh

-|-5--5-5---5-------5--5-----|-5--5-5---5--5-5----5-5-5-|---------------------
-|-5--5-5---5-------5--5-----|-5--5-5---5--5-5----5-5-5-|---------------------
-|-6--6-6---7-------7--7-----|-6--6-6---7--7-7----7-7-7-|---------------------
-|-7--7-7---7-------7--7-----|-7--7-7---7--7-7----7-7-7-|---------------------
-|-x--x-x---x-------x--x-----|-x--x-x---x--x-x----x-x-x-|---------------------
-|-5--5-5---5-------5--5-----|-5--5-5---5--5-5----5-5-5-|---------------------
G2

-|--------------------------------------|-------------------------|-----------
-|----------------8---------------------|---------------8---------|-----------
-|--10-10-10-10------9----10--9---------|-10-10-10-10------9------|-----------
-|--10-10-10-10-----10----10-10---------|-10-10-10-10-----10------|-----------
-|--------------------------------------|-------------------------|-----------
-|--------------------------------------|-------------------------|-----------
G1 You know where now I can see I just

-|---1--1--1--1---0--0------0-0-------0-|--1--1--1--1---0--0------|-----------
-|---1--1--1--1---1--1------1-1-3--3--1-|--1--1--1--1---1--1------|-----------
-|---2--2--2--2---0--0------0-0-0--0--0-|--2--2--2--2---0--0------|-----------
-|---3--3--3--3---2--2------2-2-2--2--2-|--3--3--3--3---2--2------|-----------
-|---x--x--x--x---3--3------3-3-3--3--3-|--x--x--x--x---3--3------|-----------
-|---1--1--1--1-------------------------|--1--1--1--1-------------|-----------
G2

-|------------------------------------------------------------------|---------
-|------------7------8---------------7---8-7-10-8-7-----------------|---------
-|--9-9-9-9-9-7------0----11/12------7--------------9---------------|---------
-|--9-9-9-9-9-7------9-----x---------7-------------------11--9------|---------
-|--7-7-7-7-7-------10-----9/10------0--------------------------0---|---------
-|------------------------------------------------------------------|---------
G1 Stare___________ I______________ I'm still alive hey_______

-|--0-----0-0-0-0-0--3---3-3--3-3-3--2---2-2--2-2-2-0-----0-0-0-0-0-|---------
-|--0-----0-0-0-0-0--3---3-3--3-3-3--3---3-3--3-3-3-2-----2-2-2-2-2-|---------
-|--1-----1-1-1-1-1--0---0-0--0-0-0--2---2-2--2-2-2-2-----2-2-2-2-2-|---------
-|--2-----2-2-2-2-2--0---0-0--0-0-0--0---0-0--0-0-0-2-----2-2-2-2-2-|---------
-|--2-----2-2-2-2-2--2---2-2--2-2-2-----------------0-----0-0-0-0-0-|---------
-|--0-----0-0-0-0-0--3---3-3--3-3-3---------------------------------|---------
G2

-|------------------------------------------------------------------|---------
-|------------7------8---------------7---8-7-10-8-7-----------------|---------
-|--9-9-9-9-9-7------0----11/12------7--------------9---------------|---------
-|--9-9-9-9-9-7------9-----x---------7-------------------11--9------|---------
-|--7-7-7-7-7-------10-----9/10------0--------------------------0---|---------
-|------------------------------------------------------------------|---------
G1 I________ Oh_____________ I'm still alive hey_______ 2x

-|--0-----0-0-0-0-0--3---3-3--3-3-3--2---2-2--2-2-2-0-----0-0-0-0-0-|---------
-|--0-----0-0-0-0-0--3---3-3--3-3-3--3---3-3--3-3-3-2-----2-2-2-2-2-|---------
-|--1-----1-1-1-1-1--0---0-0--0-0-0--2---2-2--2-2-2-2-----2-2-2-2-2-|---------
-|--2-----2-2-2-2-2--0---0-0--0-0-0--0---0-0--0-0-0-2-----2-2-2-2-2-|---------
-|--2-----2-2-2-2-2--2---2-2--2-2-2-----------------0-----0-0-0-0-0-|---------
-|--0-----0-0-0-0-0--3---3-3--3-3-3---------------------------------|---------
G2 2x

-|----------------------------------------------------------------------|-----
-|-------------------8---------------7---8-7-10-8-7---------------------|-----
-|--9-9-9-9-9-9-9-9--0----11/12------7--------------9-------------------|-----
-|--9-9-9-9-9-9-9-9--9-----x---------7-------------------11-----7h9-9vv-|-----
-|--7-7-7-7-7-7-7-7-10-----9/10------0------------------------0---------|-----
-|----------------------------------------------------------------------|-----
G1 I________ Oh_____________ I'm still alive hey_____

-|--0-----0-0-0-0-0--3---3-3--3-3-3--2---2-2--2-2-2-0-----0-0-0-0-0-----|-----
-|--0-----0-0-0-0-0--3---3-3--3-3-3--3---3-3--3-3-3-2-----2-2-2-2-2-----|-----
-|--1-----1-1-1-1-1--0---0-0--0-0-0--2---2-2--2-2-2-2-----2-2-2-2-2-----|-----
-|--2-----2-2-2-2-2--0---0-0--0-0-0--0---0-0--0-0-0-2-----2-2-2-2-2-----|-----
-|--2-----2-2-2-2-2--2---2-2--2-2-2-----------------0-----0-0-0-0-0-----|-----
-|--0-----0-0-0-0-0--3---3-3--3-3-3-------------------------------------|-----
G2

-|---------------------------------|---------------------------|--------------
-|-12-12-12-12--12-12-12-12--12-12-|-11--11-11---12--11--9--12-|--------------
-|-11-11-11-11--11-11-11-11--11-11-|-11--11-11---11--11--9--11-|--------------
-|--9--9--9--9---9--9--9--9---9--9-|-11--11-11---11--11--9---9-|--------------
-|--9--9--9--9---9--9--9--9---9--9-|--9---9--9----9---9------9-|--------------
-|--------------11-11-11-11--11-11-|--9---9--9----9---9--------|--------------
G1+G2 Ohh

-|---------------------------------|--------------------------|---------------
-|-12-12-12-12--12-12-12-12--12-12-|-11--11-11--11--11-11--11-|---------------
-|-11-11-11-11--11-11-11-11--11-11-|-11--11-11--11--11-11--11-|---------------
-|--9--9--9--9---9--9--9--9---9--9-|-11--11-11--11--11-11--11-|---------------
-|--9--9--9--9---9--9--9--9---9--9-|--9---9--9---9---9--9---9-|---------------
-|--------------11-11-11-11--11-11-|--9---9--9---9---9--9---9-|---------------
G1+G2 Yeah yeah yeah Woo

-|---------------------------------|---------------------------|--------------
-|-12-12-12-12--12-12-12-12--12-12-|-11--11-11--11--11-11--x-x-|--------------
-|-11-11-11-11--11-11-11-11--11-11-|-11--11-11--11--11-11--x-x-|--------------
-|--9--9--9--9---9--9--9--9---9--9-|-11--11-11--11--11-11--x-x-|--------------
-|--9--9--9--9---9--9--9--9---9--9-|--9---9--9---9---9--9--x-x-|--------------
-|--------------11-11-11-11--11-11-|--9---9--9---9---9--9------|--------------
G1+G2

-|---------------------------------|------------0----|------------------------
-|-12-12-12-12--12-12-12-12--12-12-|-11-----------0--|------------------------
-|-11-11-11-11--11-11-11-11--11-11-|-11--------------|------------------------
-|--9--9--9--9---9--9--9--9---9--9-|-11--------------|------------------------
-|--9--9--9--9---9--9--9--9---9--9-|--9--------------|------------------------
-|--------------11-11-11-11--11-11-|--9--------------|------------------------
G1+G2 G1

-|-0-0---0------------------|-0-0-----------------|-0-0--0------------------|-
-|-2-0---3------------------|-2-0--3--0---0-------|-2-0--3------------------|-
-|-0-0---2------------------|-0-0--2---2----2-----|-0-0--2------------------|-
-|-2-2---0------------------|-2-2--0---0----0-----|-2-2--0------------------|-
-|-0-0----------------------|-0-0-----------------|-0-0---------------------|-
-|--------------------------|---------------------|-------------------------|-
G1 Is something wrong she said of course there is 'You're still a-

-|-5-5---5--------5---------|-5-5--5--------------|-5-5--5------------5-----|-
-|-5-5---5------------------|-5-5--5--------------|-5-5--5------------------|-
-|-6-6---7----------7-------|-6-6--7--------------|-6-6--7--------------7---|-
-|-7-7---7------------------|-7-7--7--------------|-7-7--7------------------|-
-|-x-x---x------------------|-x-x--x--------------|-x-x--x------------------|-
-|-5-5---5------------------|-5-5--5--------------|-5-5--5------------------|-
G2

-|--------0-0------------------------|-------2------------|-------------------
-|--------2-0-------0------0---------|-4--2--5------------|-------------------
-|--------0-0----2----2--------------|-2--2--4------------|-------------------
-|--------2-2----0----0--------------|-4--4--2------------|-------------------
-|--------0-0------------------------|-2--2---------------|-------------------
-|-----------------------------------|--------------------|-------------------
G1 -live she said Oh do I deserve to be? Is that the

-|--------5-5----5-------------------|-7--7--7------------|-------------------
-|--------5-5----5-------------------|-7--7--7------------|-------------------
-|--------6-6----7-------------------|-8--8--9------------|-------------------
-|--------7-7----7-------------------|-9--9--9------------|-------------------
-|--------x-x----x-------------------|-x--x--x------------|-------------------
-|--------5-5----5-------------------|-7--7--7------------|-------------------
G2

-|--------------2----2--------|-------2----------|--------------2----2--|-----
-|------4---2---2--2-2--------|-4--2--5----------|-4--2---------2--2-2--|-----
-|------2---2---4----4--------|-2--2--4----------|-2--2---------4----4--|-----
-|------4---4---2----2--------|-4--4--2----------|-4--4---------2----2--|-----
-|------2---2-----------------|-2--2-------------|-2--2-----------------|-----
-|----------------------------|------------------|----------------------|-----
G1 Question? And if so, if so, who an - swers? Who answers?

-|------7---7--7--------------|-7--7--7----------|-7--7---------7-------|-----
-|------7---7--7--------------|-7--7--7----------|-7--7---------7-------|-----
-|------8---8--9--------------|-8--8--9----------|-8--8---------9-------|-----
-|------9---9--9--------------|-9--9--9----------|-9--9---------9-------|-----
-|------x---x--x--------------|-x--x--x----------|-x--x---------x-------|-----
-|------7---7--7--------------|-7--7--7----------|-7--7---------7-------|-----
G2

-|-------------------------------------------------------------------|--------
-|------------7------8---8--8--8--8--8--7---7-7-7-7-7----------------|--------
-|--9-9-9-9-9-7------0---0--0--0--0--0--7---7-7-7-7-7---9--7---------|--------
-|--9-9-9-9-9-7------9---9--9--9--9--9--7---7-7-7-7-7---------9------|--------
-|--7-7-7-7-7-------10--10-10-10-10-10--0---0-0-0-0-0-----------0-0--|--------
-|-------------------------------------------------------------------|--------
G1 I________ Oh_______________ I'm still alive hey_____ 3x

-|--0-----0-0-0-0-0--3---3--3--3--3--3--2---2-2-2-2-2--0---0-0-0-0-0-|--------
-|--0-----0-0-0-0-0--3---3--3--3--3--3--3---3-3-3-3-3--2---2-2-2-2-2-|--------
-|--1-----1-1-1-1-1--0---0--0--0--0--0--2---2-2-2-2-2--2---2-2-2-2-2-|--------
-|--2-----2-2-2-2-2--0---0--0--0--0--0--0---0-0-0-0-0--2---2-2-2-2-2-|--------
-|--2-----2-2-2-2-2--2---2--2--2--2--2-----------------0---0-0-0-0-0-|--------
-|--0-----0-0-0-0-0--3---3--3--3--3--3-------------------------------|--------
G2

-|-------------------------------------------------------------------|--------
-|-------------------8---8--8--8--8--8--7---7-7-7-7-7----------------|--------
-|--9-9-9-9-9-9-9-9--0---0--0--0--0--0--7---7-7-7-7-7---9--7---------|--------
-|--9-9-9-9-9-9-9-9--9---9--9--9--9--9--7---7-7-7-7-7---------9------|--------
-|--7-7-7-7-7-7-7-7-10--10-10-10-10-10--0---0-0-0-0-0-----------0-0--|--------
-|-------------------------------------------------------------------|--------
G1 I_____ Oh__ I'm still a - live yea yea yea yea yea ya

-|--0-----0-0-0-0-0--3---3--3--3--3--3--2---2-2-2-2-2----------------|--------
-|--0-----0-0-0-0-0--3---3--3--3--3--3--3---3-3-3-3-3--2---2-2-2-2-2-|--------
-|--1-----1-1-1-1-1--0---0--0--0--0--0--2---2-2-2-2-2--2---2-2-2-2-2-|--------
-|--2-----2-2-2-2-2--0---0--0--0--0--0--0---0-0-0-0-0--2---2-2-2-2-2-|--------
-|--2-----2-2-2-2-2--2---2--2--2--2--2-----------------0---0-0-0-0-0-|--------
-|--0-----0-0-0-0-0--3---3--3--3--3--3-------------------------------|--------
G2

-|-------------------------------------------------------|--------------------
-|-9------------------9--9--9-----8-----------8--8--8--8-|--------------------
-|-9------------------9--9--9-----0-----------0--0--0--0-|--------------------
-|-9------------------9--9--9-----9-----------9--9--9--9-|--------------------
-|-7------------------7--7--7----10----------10-10-10-10-|--------------------
-|-------------------------------------------------------|--------------------
(3:38) Solo Rhythm, G1 (not exact)

-|-------------------------------------------------------|--------------------
-|-15b17r15-12-------------------------------------------|--------------------
-|-------------14b16r14-12-------12----12-12-14p12----12-|--------------------
-|-------------------------14-------14-------------14----|--------------------
-|-------------------------------------------------------|--------------------
-|-------------------------------------------------------|--------------------
Solo, G2

-|----------------------------------------------|-----------------------------
-|--7----------------7--7--7--------------------|-----------------------------
-|--7----------------7--7--7----9---7-----------|-----------------------------
-|--7----------------7--7--7------------9-------|-----------------------------
-|--0----------------0--0--0--------------0-0---|-----------------------------
-|----------------------------------------------|-----------------------------
G1 (3:42)

-|----------------------------------------------|-----------------------------
-|-------------------------------------------12-|-----------------------------
-|-14b16--14b16--14b16r14-12-14-12vvvv-14b16----|-----------------------------
-|----------------------------------------------|-----------------------------
-|----------------------------------------------|-----------------------------
-|----------------------------------------------|-----------------------------
G2

-|-------------------------------------------------------------------|--------
-|--9--------------9-----9--9--------------8-----------------8--8--8-|--------
-|--9--------------9-----9--9--------------0-----------------0--0--0-|--------
-|--9--------------9-----9--9--------------9-----------------9--9--9-|--------
-|--7--------------7-----7--7-------------10----------------10-10-10-|--------
-|-------------------------------------------------------------------|--------
G1 (3:45)

-|----------12----------12-------------------------------------------|--------
-|-------12----12-15b17----15p12----12-------------------------------|--------
-|-14b16-------------------------14----14b16r14p12-14-14-12-14-12vvv-|--------
-|-------------------------------------------------------------------|--------
-|-------------------------------------------------------------------|--------
-|-------------------------------------------------------------------|--------
G2

-|-------------------------------------|------------------------------------|-
-|--7-----------7--7--7----------------|--9------9-9-9---8-------8--8--8----|-
-|--7-----------7--7--7----9--7--------|--9------9-9-9---0-------0--0--0----|-
-|--7-----------7--7--7----------9-----|--9------9-9-9---9-------9--9--9----|-
-|--0-----------0--0--0------------0-0-|--7------7-7-7--10------10-10-10----|-
-|-------------------------------------|------------------------------------|-
G1 (3:48) (3:51)

-|-------------------------------------|--------17b19v-17b19r17-15----------|-
-|---------------------------------0-0-|-17b19v--------------------17-------|-
-|---------------------------------0-0-|------------------------------14/16-|-
-|-14-12-------------------------------|------------------------------------|-
-|-------14-13-12-10-12-10-12b14vv-----|------------------------------------|-
-|-------------------------------------|------------------------------------|-
G2

-|----------------------------------------------|-----------------------|-----
-|-7------------7--7--7-------------------------|-9--9-9-9---8----8--8--|-----
-|-7------------7--7--7--------9---7------------|-9--9-9-9---0----0--0--|-----
-|-7------------7--7--7----------------9--------|-9--9-9-9---9----9--9--|-----
-|-0------------0--0--0-------------------0--0--|-7--7-7-7--10---10-10--|-----
-|----------------------------------------------|-----------------------|-----
G1 (3:54)

-|-------------15-------------------------------|-----------------------|-----
-|-15-17----------17--------------------0-------|-----------------------|-----
-|-------16b18-------1614p12-14-12vvv--0-2b4vvv|vvvvvvvv-----2b4r2--0--|-----
-|----------------------------------------------|-----------------------|-----
-|----------------------------------------------|-----------------------|-----
-|----------------------------------------------|-----------------------|-----
G2

-|-------------------------------------|-7-7-7-7-7-7-7-7---7-5-5-5-5-5-5-5-|--
-|-7---------7-7-7---------------------|-7-7-7-7-7-7-7-7---7-7-7-7-7-7-7-7-|--
-|-7---------7-7-7---9---7-------------|-----------------------------------|--
-|-7---------7-7-7-----------9---------|-----------------------------------|--
-|-0---------0-0-0--------------0-0----|-----------------------------------|--
-|-------------------------------------|-----------------------------------|--
G1 (4:01) Wow uh-huh (4:04) yeah uh-

-|-------------0-3-0-3-5b7-r5-12-------|-----------------------------------|--
-|-----0-3-0-3-------------------15-12-|---------------------3-3---5-3---3-|--
-|-2b4---------------------------------|-2b4vvvvvvvv-2-0-2/4-----4-----4---|--
-|-------------------------------------|-----------------------------------|--
-|-------------------------------------|-----------------------------------|--
-|-------------------------------------|-----------------------------------|--
G2

-|-5-5-5-5-5-5-5-5---5--7--7-7-7-7-7-7-|-7-7-7-7-7-7-7-7-7-5-5-5-5-5-5-5--|---
-|-7-7-7-7-7-7-7-7---7--7--7-7-7-7-7-7-|-7-7-7-7-7-7-7-7-7-7-7-7-7-7-7-7--|---
-|-------------------------------------|----------------------------------|---
-|-------------------------------------|----------------------------------|---
-|-------------------------------------|----------------------------------|---
-|-------------------------------------|----------------------------------|---
G1 -Huh (4:07) oh woh uh - huh (4:10) yeah uh -

-|-----------3-5-5b7-r5p3-5-3----------|-2h3-2---2h3-2---2p0--------------|---
-|-5vvvvvv-5------------------5-----5/-|---------------------3---3---3-3--|---
-|-------------------------------------|----------------------------------|---
-|-------------------------------------|----------------------------------|---
-|-------------------------------------|----------------------------------|---
-|-------------------------------------|----------------------------------|---
G2

-|-5-5-5-5-5-5-5--5---5--7-7-7---7--7-7-7-|-----------------------------------
-|-7-7-7-7-7-7-7--7---7--7-7-7---7--7-7-7-|-----------------------------------
-|----------------------------------------|-----------------------------------
-|----------------------------------------|-----------------------------------
-|----------------------------------------|-----------------------------------
-|----------------------------------------|-----------------------------------
G1 -Huh (4:13) yeah yeah yeah yeah

-|---0-0-3-0-3-0--------------------------|-----------------------------------
-|-3-------------12----12-12--------------|-----------------------------------
-|---------------14b16-------14b16r14-----|-----------------------------------
-|----------------------------------------|-----------------------------------
-|----------------------------------------|-----------------------------------
-|----------------------------------------|-----------------------------------
G2

-|--0--------------0--0--0--3-------------3--3--3-----|-----------------------
-|--0--------------0--0--0--3-------------3--3--3-----|-----------------------
-|--1--------------1--1--1--0-------------0--0--0-----|-----------------------
-|--2--------------2--2--2--0-------------0--0--0-----|-----------------------
-|--2--------------2--2--2--2-------------2--2--2-----|-----------------------
-|--0--------------0--0--0--3-------------3--3--3-----|-----------------------
G1 (4:16)

-|-------12-12-12-------12---------15-15-------15-15--|-----------------------
-|-15b17----------15b17------18b20-------18b20--------|-----------------------
-|----------------------------------------------------|-----------------------
-|----------------------------------------------------|-----------------------
-|----------------------------------------------------|-----------------------
-|----------------------------------------------------|-----------------------
G2

-|--2--------------2--2--2----------------------------------|-----------------
-|--3--------------3--3--3-----2-----------------2--2--2----|-----------------
-|--2--------------2--2--2-----2-----------------2--2--2----|-----------------
-|--0--------------0--0--0-----2-----------------2--2--2----|-----------------
-|-----------------------------0-----------------0--0--0----|-----------------
-|----------------------------------------------------------|-----------------
G1 (4:19)

-|-14-------14-14----14-14-14-12-------12-12-------12-12-12-|-----------------
-|----17b19-------17-------------15b17-------15b17----------|-----------------
-|----------------------------------------------------------|-----------------
-|----------------------------------------------------------|-----------------
-|----------------------------------------------------------|-----------------
-|----------------------------------------------------------|-----------------
G2

-|--0--------------------0--0--0----3--------------3-----3--3--|--------------
-|--0--------------------0--0--0----3--------------3-----3--3--|--------------
-|--1--------------------1--1--1----0--------------0-----0--0--|--------------
-|--2--------------------2--2--2----0--------------0-----0--0--|--------------
-|--2--------------------2--2--2----2--------------2-----2--2--|--------------
-|--0--------------------0--0--0----3--------------3-----3--3--|--------------
G1 (4:22)

-|-------------12-12-------12-12-12---------15-15-------15-15--|--------------
-|-15p12-15b17-------15b17------------18b20-------18b20--------|--------------
-|-------------------------------------------------------------|--------------
-|-------------------------------------------------------------|--------------
-|-------------------------------------------------------------|--------------
-|-------------------------------------------------------------|--------------
G2

-|--2-----------2--2--2----------------------|--------------------------------
-|--3-----------3--3--3------2------2--2--2--|--------------------------------
-|--2-----------2--2--2------2------2--2--2--|--------------------------------
-|--0-----------0--0--0------2------2--2--2--|--------------------------------
-|---------------------------0------0--0--0--|--------------------------------
-|-------------------------------------------|--------------------------------
G1 (4:25)

-|-12-15p12----12-15-12-15b17-15vv----------|--------------------------------
-|----------15-------------------------------|--------------------------------
-|----------------------------------7/12-/--|--------------------------------
-|-------------------------------------------|--------------------------------
-|-------------------------------------------|--------------------------------
-|-------------------------------------------|--------------------------------
G2

-|-----0-------0--0--0--------3-----------------------3-3-3-|-----------------
-|-----0-------0--0--0--------3-----------------------3-3-3-|-----------------
-|-----1-------1--1--1--------0-----------------------0-0-0-|-----------------
-|-----2-------2--2--2--------0-----------------------0-0-0-|-----------------
-|-----2-------2--2--2--------2-----------------------2-2-2-|-----------------
-|-----0-------0--0--0--------3-----------------------3-3-3-|-----------------
G1 (4:28)

-|-15b17--15--12-15-12-12-------12--------------------------|-----------------
-|------------------------15b17----15p12-------12-----------|-----------------
-|---------------------------------------14b16----14b16-----|-----------------
-|----------------------------------------------------------|-----------------
-|----------------------------------------------------------|-----------------
-|----------------------------------------------------------|-----------------
G2

-|-----2-----------2--2--2----------------------|-----------------------------
-|-----3-----------3--3--3-----2-----2--2--2----|-----------------------------
-|-----2-----------2--2--2-----2-----2--2--2----|-----------------------------
-|-----0-----------0--0--0-----2-----2--2--2----|-----------------------------
-|-----------------------------0-----0--0--0----|-----------------------------
-|----------------------------------------------|-----------------------------
G1 (4:31)

-|----------------------------------------------|-----------------------------
-|-------------------------------12vvv-12-12-12-|-----------------------------
-|-14b16r14-12----12-14-12-14-14-12vvv-12-12-12-|-----------------------------
-|-------------14-------------------------------|-----------------------------
-|----------------------------------------------|-----------------------------
-|----------------------------------------------|-----------------------------
G2

-|-----0---------------0-0----0-------3--------------------3--3-3---------|---
-|-----0---------------0-0----0-------3--------------------3--3-3---------|---
-|-----1---------------1-1----1-------0--------------------0--0-0---------|---
-|-----2---------------2-2----2-------0--------------------0--0-0---------|---
-|-----2---------------2-2----2-------2--------------------2--2-2---------|---
-|-----0---------------0-0----0-------3--------------------3--3-3---------|---
G1 (4:34)

-|-------12-----------12-----------12-----------12-----------12-----------|---
-|---------15p12--------15p12--------15p12--------15p12--------15p12------|---
-|-14b16--------14b16--------14b16--------14b16--------14b16--------14b16-|---
-|------------------------------------------------------------------------|---
-|------------------------------------------------------------------------|---
-|------------------------------------------------------------------------|---
G2

-|--2--------------2-------2--2---------------------|-------------------------
-|--3--------------3-------3--3--------2---2-2-2----|-------------------------
-|--2--------------2-------2--2--------2---2-2-2----|-------------------------
-|--0--------------0-------0--0--------2---2-2-2----|-------------------------
-|-------------------------------------0---0-0-0----|-------------------------
-|--------------------------------------------------|-------------------------
G1 (4:38)

-|-12-----------12-----------12---------------------|-------------------------
-|---15p12--------15p12---------15p12---------12----|-------------------------
-|--------14b16--------14b16------------------12----|-------------------------
-|-----------------------------------------------14-|-------------------------
-|--------------------------------------------------|-------------------------
-|------------------------------------15-----------|-------------------------
G2

-|--0---------0--0--0---3---------3--3--3-|-----------------------------------
-|--0---------0--0--0---3---------3--3--3-|-----------------------------------
-|--1---------1--1--1---0---------0--0--0-|-----------------------------------
-|--2---------2--2--2---0---------0--0--0-|-----------------------------------
-|--2---------2--2--2---2---------2--2--2-|-----------------------------------
-|--0---------0--0--0---3---------3--3--3-|-----------------------------------
G1 (4:41)

-|----------------------------------------|-----------------------------------
-|-14-12vvv------------14-12vvv-----------|-----------------------------------
-|-14-12vvv--14-12-----14-12vvv--14-12----|-----------------------------------
-|-----------------14------------------14-|-----------------------------------
-|----------------------------------------|-----------------------------------
-|----------------------------------------|-----------------------------------
G2

-|--2-----------2--2--2-------------------------------|-----------------------
-|--3-----------3--3--3-----2--------------2--2--2----|-----------------------
-|--2-----------2--2--2-----2--------------2--2--2----|-----------------------
-|--0-----------0--0--0-----2--------------2--2--2----|-----------------------
-|--------------------------0--------------0--0--0----|-----------------------
-|----------------------------------------------------|-----------------------
G1 (4:44)

-|-------------------------12-12-------12-12-------15-|-----------------------
-|-------12----12-------12-12-12-------12-12----------|-----------------------
-|-14vvv-12----12-14b16----------14b16-------14b16----|-----------------------
-|----------14----------------------------------------|-----------------------
-|----------------------------------------------------|-----------------------
-|----------------------------------------------------|-----------------------
G2

-|--0-----------0--0--0-----3-----------3--3--3----|--------------------------
-|--0-----------0--0--0-----3-----------3--3--3----|--------------------------
-|--1-----------1--1--1-----0-----------0--0--0----|--------------------------
-|--2-----------2--2--2-----0-----------0--0--0----|--------------------------
-|--2-----------2--2--2-----2-----------2--2--2----|--------------------------
-|--0-----------0--0--0-----3-----------3--3--3----|--------------------------
G1 (4:47)

-|-------15-------15-------15-------15-------15----|--------------------------
-|-15----15-15----15-15----15-15----15-15-------15-|--------------------------
-|-14b16----14b16----14b16----14b16----14b16----16-|--------------------------
-|-------------------------------------------------|--------------------------
-|-------------------------------------------------|--------------------------
-|-------------------------------------------------|--------------------------
G2 hold bend--|

-|--2-----------2--2--2-------------------------|-----------------------------
-|--3-----------3--3--3----2----------2---2-2---|-----------------------------
-|--2-----------2--2--2----2----------2---2-2---|-----------------------------
-|--0-----------0--0--0----2----------2---2-2---|-----------------------------
-|-------------------------0----------0---0-0---|-----------------------------
-|----------------------------------------------|-----------------------------
G1 (4:50)

-|--------------------------------------0---0-0-|-----------------------------
-|-15-----------------------------------3/5-5-5-|-----------------------------
-|-16r14-12----12-14-14-14---14-14-14-----------|-----------------------------
-|----------14----------------------------------|-----------------------------
-|----------------------------------------------|-----------------------------
-|----------------------------------------------|-----------------------------
G2--|

-|-0------------0--0--0-----3-----------3--3--3-----|-------------------------
-|-0------------0--0--0-----3-----------3--3--3-----|-------------------------
-|-1------------1--1--1-----0-----------0--0--0-----|-------------------------
-|-2------------2--2--2-----0-----------0--0--0-----|-------------------------
-|-2------------2--2--2-----2-----------2--2--2-----|-------------------------
-|-0------------0--0--0-----3-----------3--3--3-----|-------------------------
G1 (4:53)

-|-0------0--0--3--0--0--0--5--0--0--0--3--0--0--0--|-------------------------
-|-3-/-5--5--5--5--5--5--5--5--5--5--5--5--5--5--5--|-------------------------
-|--------------------------------------------------|-------------------------
-|--------------------------------------------------|-------------------------
-|--------------------------------------------------|-------------------------
-|--------------------------------------------------|-------------------------
G2

-|-2------------2--2--2--------------------------------------|----------------
-|-3------------3--3--3---------2--------------2---2----2----|----------------
-|-2------------2--2--2---------2--------------2---2----2----|----------------
-|-0------------0--0--0---------2--------------2---2----2----|----------------
-|------------------------------0--------------0---0----0----|----------------
-|-----------------------------------------------------------|----------------
G1 (4:56)

-|-0------0--0--3--0--0--0--15b17-12-12-------12-------12-12-|----------------
-|-3-/-5--5--5--5--5--5--5--------------15b17----15b17-------|----------------
-|-----------------------------------------------------------|----------------
-|-----------------------------------------------------------|----------------
-|-----------------------------------------------------------|----------------
-|-----------------------------------------------------------|----------------
G2

-|--0-----------------0--0-----0-----3---------------3--3--3----|-------------
-|--0-----------------0--0-----0-----3---------------3--3--3----|-------------
-|--1-----------------1--1-----1-----0---------------0--0--0----|-------------
-|--2-----------------2--2-----2-----0---------------0--0--0----|-------------
-|--2-----------------2--2-----2-----2---------------2--2--2----|-------------
-|--0-----------------0--0-----0-----3---------------3--3--3----|-------------
G1 (4:59)

-|-15b17-12-12-------12-12-------12-12-------12-12--15p12-15-15-|-------------
-|-------------15b17-------15b17-------15b17--------------------|-------------
-|--------------------------------------------------------------|-------------
-|--------------------------------------------------------------|-------------
-|--------------------------------------------------------------|-------------
-|--------------------------------------------------------------|-------------
G2

-|-----2-------2--2--2-----------------------|--------------------------------
-|-----3-------3--3--3--2---------2--2--2----|--------------------------------
-|-----2-------2--2--2--2---------2--2--2----|--------------------------------
-|-----0-------0--0--0--2---------2--2--2----|--------------------------------
-|----------------------0---------0--0--0----|--------------------------------
-|-------------------------------------------|--------------------------------
G1 (5:02)

-|-17b19--17--15-17-15b16--------------------|--------------------------------
-|-------------------------17-15----15-17p15-|--------------------------------
-|-------------------------------16----------|--------------------------------
-|-------------------------------------------|--------------------------------
-|-------------------------------------------|--------------------------------
-|-------------------------------------------|--------------------------------
G2

-|--0----------0--0--0--3---------3--3--3---|---------------------------------
-|--0----------0--0--0--3---------3--3--3---|---------------------------------
-|--1----------1--1--1--0---------0--0--0---|---------------------------------
-|--2----------2--2--2--0---------0--0--0---|---------------------------------
-|--2----------2--2--2--2---------2--2--2---|---------------------------------
-|--0----------0--0--0--3---------3--3--3---|---------------------------------
G1 (5:05)

-|-17b19--17--15-17-15b16-------------------|---------------------------------
-|-------------------------17-15----15------|---------------------------------
-|-------------------------------16----16--|---------------------------------
-|------------------------------------------|---------------------------------
-|------------------------------------------|---------------------------------
-|------------------------------------------|---------------------------------
G2

-|--2--------------2--2--2--------------------------------|-------------------
-|--3--------------3--3--3--------2---------2-----2---2---|-------------------
-|--2--------------2--2--2--------2---------2-----2---2---|-------------------
-|--0--------------0--0--0--------2---------2-----2---2---|-------------------
-|--------------------------------0---------0-----0---0---|-------------------
-|--------------------------------------------------------|-------------------
G1 (5:08)

-|----------------------12--------------------------------|-------------------
-|-------------------12----12-15b17vvvv-15b17-15b17r15p12-|-------------------
-|-14-12----12-14b16--------------------------------------|-------------------
-|-------14-----------------------------------------------|-------------------
-|--------------------------------------------------------|-------------------
-|--------------------------------------------------------|-------------------
G2

-|-----0---------------0--0----0-------3--------------------3--3-3------|-----
-|-----0---------------0--0----0-------3--------------------3--3-3------|-----
-|-----1---------------1--1----1-------0--------------------0--0-0------|-----
-|-----2---------------2--2----2-------0--------------------0--0-0------|-----
-|-----2---------------2--2----2-------2--------------------2--2-2------|-----
-|-----0---------------0--0----0-------3--------------------3--3-3------|-----
G1 (5:11)

-|-------12-----------12-15p12------12-----------12-----------12--------|-----
-|---------15p12----------------------15p12--------15p12--------15p12---|-----
-|-14b16--------14b16---------14b16--------14b16--------14b16--------14-|-----
-|----------------------------------------------------------------------|-----
-|----------------------------------------------------------------------|-----
-|----------------------------------------------------------------------|-----
G2

-|-----2--------------2--2--2--------------------|----------------------------
-|-----3--------------3--3--3-----2------2--2-2--|----------------------------
-|-----2--------------2--2--2-----2------2--2-2--|----------------------------
-|-----0--------------0--0--0-----2------2--2-2--|----------------------------
-|--------------------------------0------0--0-0--|----------------------------
-|-----------------------------------------------|----------------------------
G1 (5:14)

-|-----------------------------------------------|----------------------------
-|-------12-12-12-------12-----------------------|----------------------------
-|-14b16----------14b16----15-14-12---12vvvv-----|----------------------------
-|---------------------------------14------------|----------------------------
-|-----------------------------------------------|----------------------------
-|-----------------------------------------------|----------------------------
G2

-|--0---------0--0--0------3----3-3-3-|--2---2-2-2-------------------|--------
-|--0---------0--0--0------3----3-3-3-|--3---3-3-3------2----2-2-2---|--------
-|--1---------1--1--1------0----0-0-0-|--2---2-2-2------2----2-2-2---|--------
-|--2---------2--2--2------0----0-0-0-|--0---0-0-0------2----2-2-2---|--------
-|--2---------2--2--2------2----2-2-2-|-----------------0----0-0-0---|--------
-|--0---------0--0--0------3----3-3-3-|------------------------------|--------
G1 (5:17) (5:20)

-|------------------------------------|--------------------------x-x-|--------
-|-12----12--------14-----15----------|-17------17-----17------------|--------
-|-14b16-14b16vvvv-16b18--17b19vvvvvv-|-19b21---19b21--19b21vvv------|--------
-|------------------------------------|------------------------------|--------
-|------------------------------------|------------------------------|--------
-|------------------------------------|------------------------------|--------
G2

-|--0----0-0-0-----3--------3-3-3---|--2------2--2--2-----------------------|-
-|--0----0-0-0-----3--------3-3-3---|--3------3--3--3-----2-----2--2--2-----|-
-|--1----1-1-1-----0--------0-0-0---|--2------2--2--2-----2-----2--2--2-----|-
-|--2----2-2-2-----0--------0-0-0---|--0------0--0--0-----2-----2--2--2-----|-
-|--2----2-2-2-----2--------2-2-2---|---------------------0-----0--0--0-----|-
-|--0----0-0-0-----3--------3-3-3---|---------------------------------------|-
G1 (5:23) (5:26)

-|-12-------14----15-------15-------|-17------------------------------------|-
-|-15b17vvv-17b19-18b20vvv-18b20vvv-|-20b22vvvv-20b22-20b24-20b22r20-17h20--|-
-|----------------------------------|---------------------------------------|-
-|----------------------------------|---------------------------------------|-
-|----------------------------------|---------------------------------------|-
-|----------------------------------|---------------------------------------|-
G2

-|---0----------------------------|--------||---------------------------------
-|---0----------------------------|--------||---------------------------------
-|---1----------------7h9vvvvvvvv-|-9-----||---------------------------------
-|---2----------------------------|-9-----||---------------------------------
-|---2----------------------------|-7-----||---------------------------------
-|---0----------------------------|--------||---------------------------------
G1 (5:30) End

-|--------------------------------|--------||---------------------------------
-|-p17vvvvvv---------------------|--------||---------------------------------
-|--------------------------------|--------||---------------------------------
-|--------------------------------|--------||---------------------------------
-|--------------------------------|--------||---------------------------------
-|--------------------------------|--------||---------------------------------
G2 End

Log In to leave a comment

After registration we will return you to the same place
Comments
face-with-monocle
If you wait a bit, some comments may appear here...

Shhh...