• 1
  • Share
  • Font Size
    15
Pax 217 – Am
Pax217
A.M.

Hey guys,
This song is in standard tuning.

Intro
G----------------------------------------------------------
D----------------------------------------------------------
A----------------------------42----------------------------
E--00-0---00-0---00-0---00-0------00-0---00-0----00-0--00-0

Verse
G------------------------------------
D------------------------------------
A------------42----------------------
E---00-0--54-------------------------

Pre-chorus
G------------------------------------
D------------------------------------  its not in that rhythm but those are the
A------------------------------------  notes.  (E, A)
E---00--55555-000-5555---------------

Chorus
G------------------------------------
D------------------------------------
A-----24--------24--------24-----24--
E--00------00--------00-------00-----

Another little part of song,
G------------------------------------
D------------------------------------
A------------------------------------
E--00000-----777777-----5555555------

Very easy song comparied to the other songs. this should be right, but u
Need to listen to the cd for the timing. any mistakes, e-mail me at
Msalcito@hotmail.com

Log In to leave a comment

After registration we will return you to the same place
Comments
face-with-monocle
If you wait a bit, some comments may appear here...

Shhh...