Loading...
Papa Roach logo

Revenge Papa Roach

  • 0
  • Share
  • Transposing
    0
  • Font Size
S=Slap P=Pop h=hammer on
/=slide up \=slide down

[G--------------------------------------------------------
D--------------------------------------------------------
A--------------------------------------------------------
E
B--5-5-0--1-1-0--5-5-0--1-1-0--5-5-0--1-1-0--5-5-0--1-1-0

G--------------------
D--------------------
A--------------------
E
B--1-0--1-0--1-0--1-0

G----------------------------------------------------------------------
D
A--2--2-2---2--2-2---2--2-2---2--2-2---------2--2-2----2--2-2----------
E---------2--------2--------2--------2-5-2-5--------2--2------2--------
B---------------------------------------------------------------0--0-0-

G------------------------
D
A----2-0-2-0----2-0-2-0--
E--2---------2----------2
B------------------------

G----------------------------
D----------------------------
A----------------------------
E
B--5-5-0--1-1-0--5-5-0--1-1-0

G---------------------------------------------------------
D---------------------------------------------------------
A
E----2--2-2---------------5--5-5--4-5-7-7-7-7-7-7-7-7-7-9-
B--2--------2-3--3-3--2-3---------------------------------

G----------------------------------------------------------------------
D
A--2--2-2---2--2-2---2--2-2---2--2-2---------2--2-2----2--2-2----------
E---------2--------2--------2--------2-5-2-5--------2--2------2--------
B---------------------------------------------------------------0--0-0-

G------------------------
D
A----2-0-2-0----2-0-2-0--
E--2---------2----------2
B------------------------

G--------------------------------------------------------
D--------------------------------------------------------
A--------------------------------------------------------
E
B--5-5-0--1-1-0--5-5-0--1-1-0--5-5-0--1-1-0--5-5-0--1-1-0

G-----------------------------------------
D-----------------------------------------
A-----------------------------------------
E
B--1-0-0-0-0-1-0-0-0-0-1-0-0-0-0-0-1-0-0-0]

********************************************************************
I don't really know if this is bass it sounds kind of like the dj

[G--------------------------------------------------------------
D--------------------------------------------------------------
A
E--7--0-x-10--14-----9-10--7-----10-9--7--0-x-10--14-----9-10--
B----------------7-x---------7-x---------------------7-x-------

G------------------------------------------------------------------
D------------------------------------------------------------------
A
E--7--0-x-10------7--]

Log In to leave a comment

After registration we will return you to the same place
Comments
face-with-monocle
If you wait a bit, some comments may appear here...

Shhh...