Papa Roach logo

Never Enough Papa Roach

  • 2
  • Share
  • Transposing
    0
  • Font Size
    15
Papa Roach – Never Enough
\ = Slide
B = Hammer-On
P = Pull-off
PM = Palm Mute

Intro:
Part A
[Eb--------------
Bb--------------
Gb
Db--1----0---3--
Ab--1----0---3--
Db--1----0---3--]

Part B
[Eb------------------------------------------------
Bb--8-8-8-11-11-11-10-10-10-11-11-11-13-13-11\10--
Gb------------------------------------------------
Db------------------------------------------------
Ab
Db------------------------------------------------]

Played Under On another Guitar:
[Db------------------------------------------------
Bb------------------------------------------------
Gb------------------------------------------------
Db
Ab--5-5-5--5----5-5-5--5----5-5-5--5----5-5-5--1--
Db--5-5-5--5----5-5-5--5----5-5-5--5----5-5-5--1--]

Verse:
Part A
[Db------------------------------------------------
Bb------------------------------------------------
Gb------------------------------------------------
Db
Ab--5-5-5--5----5-5-5--5----5-5-5--5----5-5-5--1--
Db--5-5-5--5----5-5-5--5----5-5-5--5----5-5-5--1--]

Part B
[Db------------------------------------------------
Bb------------------------------------------------
Gb
Db--5-5-5--5----5-5-5--5---5-5-5--5---5-5-5--5----
Ab--3-3-3--3----3-3-3--3---3-3-3--3---3-3-3--3----
Db------------------------------------------------]

Chorus:
[Db--------------------------------
Bb--------------------------------
Gb--------------------------------
Db
Ab--5h8-5h8-5\1--5h8-5h8-5p3\1----
Db--5h8-5h8-5\1--5h8-5h8-5p3\1----]

Break:
Part A
[Db------------------------------------
Bb------------------------------------
Gb------------------------------------
Db------------------------------------
Ab
Db--5-5-5-8-8-8-7-7-7-8-8-8-10-10-8\7-]
 PM . . . . . . . . . . . . . . . .

Part B
[Db------------------------------------
Bb------------------------------------
Gb------------------------------------
Db
Ab--5-5-5-8-8-8-7-7-7-8-8-8-10-10-8\7-
Db--5-5-5-8-8-8-7-7-7-8-8-8-10-10-8\7-]

Part C (not sure, should be close enough)
[Db------------------------------------
Bb------------------------------------
Gb------------------------------------
Db
Ab--5-5-5-5-5-5-5-5-8-8-8-8-8-8-8-8---
Db--5-5-5-5-5-5-5-5-8-8-8-8-8-8-8-8---]

Ending:
[Eb----------
Bb----------
Gb----------
Db
Ab--1--1--0-
Db--1--1--0-]

-Song Order-

Intro A x 4
Intro B x 4
Verse A x 2
Verse B x 1
Verse A x 2
Verse B x 1
Chorus x 4
Verse A x 2
Verse B x 1
Verse A x 2
Verse B x 1
Chorus x 8
Intro A x 4
Break A x 12
Break B x 3
Break C x 1
Chorus x 8
Intro x 1
Ending x 1

Log In to leave a comment

After registration we will return you to the same place
Comments
face-with-monocle
If you wait a bit, some comments may appear here...

Shhh...