Loading...
Papa Roach logo

Dead Cell Papa Roach

  • 0
  • Share
  • Transposing
    0
  • Font Size
Guitar Intro
! Verse Part I } x2
[G-------------------------------------------------------------------
D-------------------------------------------------------------------
A
D-2-0-2-0-2-2--0---2-0-2-0-2-2--0---2-0-2-0-2-2--0---2-0-4-4-5p4----

G-------------------------------------------------------------------
D
A--------------------------------------------------------2-2-2------
D-2-2-0-2-0-2-2--0---2-0-2-0-2-2--0---2-0-2-0-2-2--0----2-----5-5---]

! Verse Part II } x2
[G------------------------------------------------------------------
D------------------------------------------------------------------
A
D--2-0-2-0-2-0-2-0---2-2-2--2-0---2-0-2-0-2-0-2-0---2-2-4-4-5p4----

G------------------------------------------------------------------
D
A-----------------------------------------------------2-2-2--------
D--2-0-2-0-2-0-2-0---2-2-2--2-0------2-0-2-0-2-0-2-0---------5-5-5-]

! Chorus Part I } x8
[G-----------------
D-----------------
A
D--2/0-0-0-0------]

! Verse Part II } x2
[G-----------------------------------------------------------------
D-----------------------------------------------------------------
A
D--2-0-2-0-2-0-2-0---2-2-2--2-0------2-0-2-0-2-0-2-0--2-2-4-4-5p4-

G------------------------------------------------------------------
D
A-----------------------------------------------------2-2-2--------
D--2-0-2-0-2-0-2-0---2-2-2--2-0------2-0-2-0-2-0-2-0---------5-5-5-]

! Chorus Part I } x7
[G-----------------
D-----------------
A
D--2/0-0-0-0------]

! Chorus Part II } x1
[G-----------------
D-2-2-2-2-2-2-2-2-
A
D-----------------]

! Verse Part I } x4
[G-------------------------------------------------------------------
D-------------------------------------------------------------------
A
D-2-0-2-0-2-2--0---2-0-2-0-2-2--0---2-0-2-0-2-2--0---2-0-4-4-5p4----

G-------------------------------------------------------------------
D
A--------------------------------------------------------2-2-2------
D-2-2-0-2-0-2-2--0---2-0-2-0-2-2--0---2-0-2-0-2-2--0----2-----5-5---]

! Verse Part II } x1
[G------------------------------------------------------------------
D------------------------------------------------------------------
A
D--2-0-2-0-2-0-2-0--2-2-2--2-0-----2-0-2-0-2-0-2-0--2-2-4-4-5p4----

G------------------------------------------------------------------
D
A-----------------------------------------------------2-2-2--------
D--2-0-2-0-2-0-2-0---2-2-2--2-0------2-0-2-0-2-0-2-0---------5-5-5-]

! Chorus } x8
[G-----------------|
D-----------------|
A-----------------|
D--2/0-0-0-0------|]

! Verse Part I } x2
[G-------------------------------------------------------------------
D-------------------------------------------------------------------
A
D-2-0-2-0-2-2--0---2-0-2-0-2-2--0---2-0-2-0-2-2--0---2-0-4-4-5p4----

G-------------------------------------------------------------------
D
A--------------------------------------------------------2-2-2------
D-2-2-0-2-0-2-2--0---2-0-2-0-2-2--0---2-0-2-0-2-2--0----2-----5-5---]

! Chorus Part I } x4
[G-----------------
D-----------------
A
D--2/0-0-0-0------]

! Chorus Part III } x1
[G--------------------
D--------------------
A
D--2-2--2-2--2-2--2-2]

! Verse Part I } x1
[G-------------------------------------------------------------------
D-------------------------------------------------------------------
A
D-2-0-2-0-2-2--0---2-0-2-0-2-2--0---2-0-2-0-2-2--0---2-0-4-4-5p4----

G-------------------------------------------------------------------
D
A--------------------------------------------------------2-2-2------
D-2-2-0-2-0-2-2--0---2-0-2-0-2-2--0---2-0-2-0-2-2--0----2-----5-5---]

! Chorus Part I } x4
[G-----------------
D-----------------
A
D--2/0-0-0-0------]

! Chorus Part IV } x1
[G--------------------
D--------------------
A
D--2-2---------------]

Log In to leave a comment

After registration we will return you to the same place
Comments
face-with-monocle
If you wait a bit, some comments may appear here...

Shhh...