Loading...
Papa Roach logo

Between Angels And Insects Papa Roach

  • 0
  • Share
  • Transposing
    0
  • Font Size
Intro:
E---------------------------------------------|
B---------------------------------------------|
G-----------0---------------------0-----------|
D---3---2-------3---2h3---3---2-------3---2h3-|
A-----------------------1---1---1---1---1-----|
D-0---0---0---0---0---------------------------|

E---------------------------------------------|
B---------------------------------------------|
G-----------0---------------------0-----------|
D---3---2-------3---2h3---3---2-------3---2h3-|
A-0---0---0---0---0-----3---3---3---3---3-----|
D---------------------------------------------|

E---------------------------------------------|
B---------------------------------------------|
G-----------0---------------------0-----------|
D---3---2-------3---2h3---3---2-------3---2h3-|
A-----------------------1---1---1---1---1-----|
D-0---0---0---0---0---------------------------|

E---------------------------------------------------|
B---------------------------------------------------|
G-----------0---------------------0-----------------|
D---3---2-------3---2h3---3---2-------3----3--2---0-|
A-0---0---0---0---0-----3---3---3---3---3-----------|
D-------------------------------------------------0-|

After the Intro:
E-------------------------------|
B-------------------------------|
G-------------------------------|
D0000--10101010--0000--10101010-|
A0000--10101010--0000--10101010-|
D0000--10101010--0000--10101010-|

E--------------------------------|
B--------------------------------|
G--------------------------------|
D-7777--10101010--7777--10101010-|
A-7777--10101010--7777--10101010-|
D-7777--10101010--7777--10101010-|

E--------------------------------|
B--------------------------------|
G--------------------------------|
D-0000--10101010--0000--10101010-|
A-0000--10101010--0000--10101010-|
D-0000--10101010--0000--10101010-|

E--------------------------|
B--------------------------|
G--------------------------|
D-7777--8888--3333--1111-3-|
A-7777--8888--3333--1111-3-|
D-7777--8888--3333--1111-3-|

Verse: x3
E---------------------------------------------------------------------------|
B---------------------------------------------------------------------------|
G---------------------------------------------------------------------------|
D-00000--3/555-3--33333--3/555-3--77777--3/555-3--88888-8--1010-8-1010-8-10-|
A-00000-5---------33333-5---------77777-5---------88888-8--1010-8-1010-8-10-|
D-00000-----------33333-----------77777-----------88888-8--1010-8-1010-8-10-|

Chorus:
E--------------------------------|
B--------------------------------|
G--------------------------------|
D-0000--10101010--0000--10101010-|
A-0000--10101010--0000--10101010-|
D-0000--10101010--0000--10101010-|

E---------------------------------------|
B---------------------------------------|
G---------------------------------------|
D-7777--10101010--7777--10101010--12/-0-|
A-7777--10101010--7777--10101010--12/-0-|
D-7777--10101010--7777--10101010--12/-0-|

E----------------------------------------------------------|
B----------------------------------------------------------|
G----------------------------------------------------------|
D-10101010--0000--10101010--7777--10101010--7777--10101010-|
A-10101010--0000--10101010--7777--10101010--7777--10101010-|
D-10101010--0000--10101010--7777--10101010--7777--10101010-|

Verse 2: x2
E---------------------------------------------------------------------------|
B---------------------------------------------------------------------------|
G---------------------------------------------------------------------------|
D-00000--3/555-3--33333--3/555-3--77777--3/555-3--88888-8--1010-8-1010-8-10-|
A-00000-5---------33333-5---------77777-5---------88888-8--1010-8-1010-8-10-|
D-00000-----------33333-----------77777-----------88888-8--1010-8-1010-8-10-|

Chorus:
E--------------------------------|
B--------------------------------|
G--------------------------------|
D-0000--10101010--0000--10101010-|
A-0000--10101010--0000--10101010-|
D-0000--10101010--0000--10101010-|

E---------------------------------------|
B---------------------------------------|
G---------------------------------------|
D-7777--10101010--7777--10101010--12/-0-|
A-7777--10101010--7777--10101010--12/-0-|
D-7777--10101010--7777--10101010--12/-0-|

E----------------------------------------------------------|
B----------------------------------------------------------|
G----------------------------------------------------------|
D-10101010--0000--10101010--7777--10101010--7777--10101010-|
A-10101010--0000--10101010--7777--10101010--7777--10101010-|
D-10101010--0000--10101010--7777--10101010--7777--10101010-|

Bridge:
E----------------------------| (between each note,
B----------------------------| count 4 beats!)
G----------------------------|
D-0-----8-----7-----10-------|
A-0-----8-----7-----10-------|
D-0-----8-----7-----10-------|

While Bass Solo:
E---------------------------------------------|
B---------------------------------------------|
G-----------0---------------------0-----------|
D---3---2-------3---2h3---3---2-------3---2h3-|
A-----------------------1---1---1---1---1-----|
D-0---0---0---0---0---------------------------|

E---------------------------------------------|
B---------------------------------------------|
G-----------0---------------------0-----------|
D---3---2-------3---2h3---3---2-------3---2h3-|
A-0---0---0---0---0-----3---3---3---3---3-----|
D---------------------------------------------|

Then:
E---------------------------------------------|
B---------------------------------------------|
G-----------0---------------------0-----------|
D---3---2-------3---2h3---3---2-------3---2h3-|
A-----------------------1---1---1---1---1-----|
D-0---0---0---0---0---------------------------|

E---------------------------------------------------|
B---------------------------------------------------|
G-----------0---------------------0-----------------|
D---3---2-------3---2h3---3---2-------3----3--2---0-|
A-0---0---0---0---0-----3---3---3---3---3-----------|
D-------------------------------------------------0-|

Chorus:
E--------------------------------|
B--------------------------------|
G--------------------------------|
D-0000--10101010--0000--10101010-|
A-0000--10101010--0000--10101010-|
D-0000--10101010--0000--10101010-|

E---------------------------------------|
B---------------------------------------|
G---------------------------------------|
D-7777--10101010--7777--10101010--12/-0-|
A-7777--10101010--7777--10101010--12/-0-|
D-7777--10101010--7777--10101010--12/-0-|

E----------------------------------------------------------|
B----------------------------------------------------------|
G----------------------------------------------------------|
D-10101010--0000--10101010--7777--10101010--7777--10101010-|
A-10101010--0000--10101010--7777--10101010--7777--10101010-|
D-10101010--0000--10101010--7777--10101010--7777--10101010-|

Then:
E--------------------------------|
B--------------------------------|
G--------------------------------|
D-0000--10101010--0000--10101010-|
A-0000--10101010--0000--10101010-|
D-0000--10101010--0000--10101010-|

E------------------------------------|
B------------------------------------|
G------------------------------------|
D-7777--10101010--7777--10101010---0-|
A-7777--10101010--7777--10101010---0-|
D-7777--10101010--7777--10101010---0-|

Log In to leave a comment

After registration we will return you to the same place
Comments
face-with-monocle
If you wait a bit, some comments may appear here...

Shhh...