Loading...
Papa Roach logo

Between Angels And Insects Papa Roach

  • 0
  • Share
  • Transposing
    0
  • Font Size
Tuning: Drop D (D,A,D,G)

Intro:----------------
---------------- Intro starts at 0:10 Listen
--5--1--0--3--5- to the song you'll know when to start
----------------

After Intro/Chorus:
------------------------------------------------------------
------------------------------------------------------------

--10-10-10-10-10-10--00000000--10-10-10-10-10-10--00000000--

---------------------------------------------------------------------
---------------------------------------------------------------------

--7-7-7-7-7-7h10-10-10-10-10-10-10--7-7-7-7-7-7h10-10-10-10-10-10-10-

Verse:------------------------------------------------------------------------------------

-----------------------------------------0-0-0-0-0-0-0---------1-1-1-1-1-1h3-1h3-1h3
--2-2-2-2-2-2--4-3-2-4--5-5-5-5-5--8767-----------------8-7-8-----------------------

Little Bass thing before solo:
----------------

--5---1---0---3-
----------------

Solo:---------------------------------------------------------------------
---------5-3-2-3-----------5-3-2-3-----------5-3-2-3--------3---3---3
--0-0-0-3---------1-1-1-3-----------0-0-0-3-----------3-3-3---3---3--
---------------------------------------------------------------------

Outro:----10---9---12---10---9h10-
--0----0---0----0----0------ Play this 4 time
---------------------------- Bass Outro starts at 3:43
----------------------------

-

Intro:--------------------------------------------------------------------------------
--------------------------------------------------------------------------------
--------------------------------------------------------------------------------

---10---9---12---10---9/10---10---9---12---10---9/10---10---9---12---10---9/10--
-0----0---0----0----0------8----8---8----8----8------7----7---7----7----7-------

---------------------------------
---------------------------------
---------------------------------

----10---9---12---10----9/10-----
-10---10--10---10----10-------12-

---------------------------------

--------------------------------- } x2

-10---9---12---10---9/10---------
---------------------------------

Chorus:----------------------------------------------------------------------------------

----------7-7-7-7-7-----------7-7-7-7-7--4-4-4-4--7-7-7-7-7--4-4-4-4--7-7-7-7-7---
-2-2-2-2--7-7-7-7-7--2-2-2-2--7-7-7-7-7--4-4-4-4--7-7-7-7-7--4-4-4-4--7-7-7-7-7---
-2-2-2-2--5-5-5-5-5--2-2-2-2--5-5-5-5-5--2-2-2-2--5-5-5-5-5--2-2-2-2--5-5-5-5-5---
-0-0-0-0--5-5-5-5-5--0-0-0-0--5-5-5-5-5--2-2-2-2--5-5-5-5-5--2-2-2-2--5-5-5-5-5---

Verse 2:PM
----------------------------------------------------------------------------------------
----------------------------------------------------------------------------------------
----------------------------------------------------------------------------------------

-2-2-2-2-2--5/9-9/10-10-10/9--5-5-5-5-5--5/9-9/10-10-10/9--9-9-9-9-9--5/9-9/10-10-10/9--
-0-0-0-0-0--------------------3-3-3-3-3--------------------7-7-7-7-7--------------------

---------------------------------------
---------------------------------------
---------------------------------------

-10-10-10-10-10------------------------
-8--8--8--8--8---14-14/15-14/15-14-15--

Bridge:----3~~3~~5~~
-0~~3~~3~~5~~
-0~~5~~3~~7~~
-2~~5~~5~~7~~ THEN Intro
-2~~3~~5~~5~~
-0~~3~~3~~5~~

-

Drums

C = crash
C2 = Crash 2
S = snare
B = base
B = Hi Hat
F = Floor Tom
R = Ride Cymbal

Key:
X-open HH
#- loosen HH

Part 1
[C2 X-------------------------------X-------------------------------
C --x-x-x-x-x-x-x-x-x-x-x-x-x-x-x---x-x-x-x-x-x-x-x-x-x-----------
B -----------------------------------------------X------X---------
S ----o-------o-------o-------o-oo----o-------o-------o---oooooooo
B o--------o-----oo-o------o------o-o------o------o-o---o---------
C2 X---X---------------------------X---X---------------------------
C --x---x-x-x-x-x-x-x-x-x-x-x-x-x---x---x-x-x-x-x-x-x-x-----------
B -----------------------------------------------X------X---------
S ----o-------o------o--------o-oo----o-------o-------o---oooooooo
B o-o------o-----oo-o------o------o-o------o------o-o---o---------]

Part 2
play 3x
[S ----o-------o---
T -------o-------o
F oooo----o-o-----
B o----o--o-o--o--]
________________ ________________ ________________
1. 2. 3.
[C2 ------------------------------X--------------X--
S ----o---o--o--o-----o---o--o--o-----o---o----o--
T -----------------------------------------o------
T ---------------------------------------o--o-----
F oooo------------oooo------------oooo-------o----
B o----o-o--o--o--o----o-o--o--o--o----o------o---]

Part 3
[C2 X-------------------------------X-------------------------------
C --x-x-x-x-x-x-x-x-x-x-x-x-x-x-x---x-x-x-x-x-x-x-x-x-x-----------
B -----------------------------------------------X------X---------
S ----o-------o-------o-------o-oo----o-------o-------o---oooooooo
B o--------o------o-o------o------o-o------o------o-o---o---------
C2 X---------------X---------------X-------------------------------
C ----x-x-x-x-x-x---x-x-x-x-x-x-x---x-x-x-x-x-x-x-x-x-x-----------
B -----------------------------------------------X------X---------
S ----o-------o-------o-------o-oo----o-------o-------o---oooooooo
B o--------o------o--------o------o-o------o------o-o---o---------]

Repeat part 2 w/o ending 1

Part 4
[C2 X-------------------------------X-------------------------------
C --x-x-x-x-x-x-x-x-x-x-x-x-x-x-x---x-x-x-x-x-x-x-x-x-x-----------
B -----------------------------------------------X------X---------
S ----o-------o-------o-------o-oo----o-------o-------o---oooooooo
B o--------o------o-o------o------o-o------o------o-o---o---------
C2 X---------------X---------------X-------------------------------
C ----x-x-x-x-x-x---x-x-x-x-x-x-x---x-x-x-x-x-x-x-x-x-x-----------
B -----------------------------------------------X------X---------
S ----o-------o-------o-------o-dd----o-------o-------o---ooo-o-oo
B o--------o-----oo--------o------o-o------o------o-o---o---------]

Part 5
play 3x play 3x
[C2 X---------------X-----------------------------------------------
C --------------------------------x-x-x-x-x-x-x-x-x-x-x-x-x-x-x---
T --------------------------------------------------------------o-
T ---------------------------------------------------------------o
S ------------------------bbbbbbbb--------o---------------o---o---
B o---------------o---------------o-o-------------o-o-------o-----]
play 3x
[C x-x-x-x-x-x-x-x-x-x-x-x-x-x-x---
B ------------------------------X-
S --------o---------------o----o--
B o-o-------------o-o---o---o-o---
B x-x-x-x-x-x-x-x-x-x-x-x-x-x-x-x-x-x-x-x-x-x-x-x-x-x-x-x-#-#-#-#-
S ----o--o----o-------o--o----o-------o--o----o-------o--o----o---
B o--o-o--o--o-o--o-o--o--o--o-o--o-oo-o--o--o-o--o-o--o--o-o--o--
C2 X---------------
Hf ----x---x---x---]

Part 6
[C2 X---------------X---------------X-------------------------------
C --x-x-x-x-x-x-x---x-x-x-x-x-x-x---x-x-x-x-x-x-x-x-x-x-x---------
B -----------------------------------------------X----------------
F --------------------------------------------------------oooo----
S ----o-------o-------o-------o-oo----o-------o-------o-------oooo
B o-o------o------o--------o------o-o------o------o-o---o---------
C2 X---------------X-------X-----X-X---------------X-----X---------
C ----x-x-x-x-x-x---x-x-x---x-x-----x-x-x-x-x-x-x---x-x-----------
S ----o---o--o--o-----o-------dd-o----o-------o-oo----o---oooooooo
B o--------o--o---o-o-----o-o-----o-o-----o-o-----o-o---o---------]

Part 7
[C2 X---------------X-------------X---------------X-X-------X---X---
C --x-x-x-x-x-x-x---x-x-x-x-x-x---x-x-x-x-x-x-x-----x-x-x---x-----
S --------o---------------o--o--o---------o--o--o---------o---o---
T -------------------------------------------------------------o--
T --------------------------------------------------------------o-
F ---------------------------------------------------------------o
B o-o-------------o-o------o--o---o-o---o--o--o---o-o---o---o-----
C2 X---------------
B o---------------]

Log In to leave a comment

After registration we will return you to the same place
Comments
face-with-monocle
If you wait a bit, some comments may appear here...

Shhh...