Loading...
Pantera logo

Underground In America Pantera

  • 0
  • Share
  • Transposing
    0
  • Font Size
Band: pantera
Song: the underground in america
Album: the great southern tredkill
Number: 10
Tunning: dgcfad

Pantera rocks!
Yes there is mistakes because im doing
This from memory. solos come later........

Intro
|-------------------------------------------|
|-------------------------------------------|
|-----2--------2--------2-------------------|
|--2-1-0----2-1-0----2-1-0-----7-----7------|
|-0-----3b-0-----3b-0-----3b-0--5b6-5-5b6-5-|
|-------------------------------------------|
Play the staff above again distorted.
1x
|--------------------------|
|--------------------------|
|-------4-4-4--3-3-3--2----|
|-2-2-2-2-2-2--1-1-1--0----|
|-0-0-0-----------------3b-|
|--------------------------|

|------------------------------------------------------|
|------------------------------------------------------|
|------------------------------------------------------|
|-3-3-3-3-3-3-3-3-3-3-3-3-3--6-6-6-6-6-6-6-6-6-6-6-6-6-|
|-1-1-1-1-1-1-1-1-1-1-1-1-1--4-4-4-4-4-4-4-4-4-4-4-4-4-|
|------------------------------------------------------|
Pm. . . . . . . . . . . . . . . . . . . . . . . . . .

|---------------||--------------|
|---------------||--------------|
|---------------||--------------|
|-9-9-----12-12-||--------------|
|-7-7-----10-10-||-6-3-0--6-3-0-|
|---------------||--------------|
Now repeat all that........i guess..

Now the fast riff.
|------------------------------------------|
|------------------------------------------|
|------------------------------------------|
|------------------------------------------|
|-0-0-0-0-3-0-0-0-5-0-0-0-3-0-5-0-6-0-3b-0-|
|------------------------------------------|

|----------------|
|----------------|
|----------------|
|----2p1-----2p1-|
|-1-1-----1-1----|
|----------------|

Fuck!

Solo 1

Solo 2

Main solo*

End on
|----------------|
|----------------|
|----------------|
|-2--------------|
|-0--------------|
|----------------|

End.

Log In to leave a comment

After registration we will return you to the same place
Comments
face-with-monocle
If you wait a bit, some comments may appear here...

Shhh...

Versions

Most Popular
You Might Like