Pantera logo

Planet Caravan Pantera

  • 2
  • Share
  • Transposing
    0
  • Font Size
Pantera – Planet Caravan
Игpaть в тeчeниe вceй пecни:
--------------------------------7---------------------------------------
O---------------------------7h9------------------------(7b)8 r7 ---5---o
O---7-------%---7-------7--------------5-------%---5-------------------o
------------------------------------------------------------------------

[Guitar]
(repeat thruout fade)

Em(/9) . "DM6/11" [sic: GM7/D]

E||----------------0-------0====-------|------------------------------------||
B||----------------0-------0====-------|---------------0============--------||
G||o---------------0-------0====-------|-----------0============---0---2--o||
D||o------------5----------4====---2---|-------4============---4====-------o||
A||---------2--------------------------|--/5============---5========--------||
E||----0============================---|------------------------------------||
|| ||
|| 1 & 2 & 3 & 4 & 1 & 2 & 3 & 4 & ||
|| BASS PART ||
G||--------------------------------7---|------------------------------------||
D||o---------------------------7h9-----|-------------------(7b)8 r7---5----o||
A||o---7-------%---7-------7-----------|---5-------%---5-------------------o||
E||------------------------------------|------------------------------------||
^^^^^^^^^^^^^

[Lead]

gliss
E||-------------------------------------------------------~--------------~----|
B||------------------------------------------1/4------------------------------|
G||--------------------------h-p-p----------b---------------------------------|
D||-4----------------5-7----7-8-7-5---7-5---5--------p-----------5\4----------|
A||----5--7----/7-----------------------------------7-5---7--5/7------5--7\---|
E||---------------------------------------------------------------------------|

E|---------------------------------~-------------------------p----------------|
B|--------------------------------------------------------7-8-7--5-7----------|
G|------------------------------------------------------x-------------7\6-----|
D|------5-7--8\7---8\7--8\7---5----5-------5-4---------x----------------------|
A|55-5---------------------------7------7-------7------^----------------------|
E|-----------------------------------------------fluid downstroke-------------|

E|------------~--------------p--------------p-----------------p---------------|
B|--p--------------------7--8-7----10---7--8-7--7---10----7--8-7-----7---7----|
G|-7-6--7--------------x---------7----------------------7---------9-----------|
D|----------7\4------x--------------------------------------------------------|
A|-------------------^--------------------------------------------------------|
E|-----------------downstroke-------------------------------------------------|

E|---p--------------------------------------------------~---------~-----------|
B|--8-7\5--7--p-------p-------------------------------------------------------|
G|-----------7-6--7--7-6\4--6---p----p--------p-------------------------------|
D|-----------------------------7-5--7-5---4--5-4---4-----------/9-5-----------|
A|-----------------------------------------------5----5/7-(7)\----------------|
E|----------------------------------------------------------------------------|

full
E|-----------------------------------------------------b----~-----------------|
B|-----------------------------------------------------8--------------------11|
G|------------------h-p-p-------------------------7-9-------9---(9)\/(7)--9---|
D|--5--7---7/8--7--7-8-7-5---7-5----------5--7/8------------------------------|
A|-------------------------------7--(7)\--------------------------------------|
E|----------------------------------------------------------------------------|

1/2 full
E|---b---R--p---------------h--p--------------------------b--R~---------------|
B|--10--(10)-8---10----8--10-11-10----(8)-10-----8-10-10--8-(8)--(8)\---------|
G|-------------9----9--------------------9-----------------------------/12----|
D|----------------------------------------------------------------------------|
A|----------------------------------------------------------------------------|
E|----------------------------------------------------------------------------|

full
E|-------p------------------p------------------p-----------b~--R--------12----|
B|-15--15-14----------14--14-13---------13---13-11--------10--(10)----x-------|
G|------------15--12------------14--11-------------13-10------------x---------|
D|----------------------------------------------------------------------------|
A|----------------------------------------------------------------------------|
E|---------------------------------------------------------------downstroke---|

b(full) b(full) R full
E|----14-15-17---17--~-------17------(17)---15\14---p---15---b-----~----------|
B|------------------------------------------------17-15-----15----(15)--------|
G|----------------------------------------------------------------------------|
D|----------------------------------------------------------------------------|
A|----------------------------------------------------------------------------|
E|----------------------------------------------------------------------------|

1/4
E|--------b---R--p---------~----------------------h-p-h-p-----------~---------|
B|-------15--(15)-12----------------------h------7-8-7-8-7---9----7/9---------|
G|-----x----------------15-14---(14)-----6-7\6--------------------------------|
D|---x------------------------------------------------------------------------|
A|----------------------------------------------------------------------------|
E|-downstroke-----------------------------------------------------------------|

1\2
E|----------------------------------------------------------------------------|
B|-----h-p--------------------------------------------------------------------|
G|----6-7-6-------6-------p--------4------------------------------------------|
D|-------------9-----7---5-4--5/7-----5/7\5-----------------------------------|
A|--------------------------------------------b---R-----5----/11--------------|
E|--------------------------------------------5--(5)--3-----------------------|

E|--------------------------------------------------------------12----p-------|
B|----------------------h-------12-----12----12----p--p--h--h-------15-12-----|
G|-----------12--14---12-14--15----15-----15-----15-14-12-14-15---------------|
D|-12--14--14--14--14---------------------------------------------------------|
A|---14--14-------------------------------------------------------------------|
E|----------------------------------------------------------------------------|

full full 2 steps 2 steps h h
E|-----------b---12---b---12---b------12----b-------12---~---------17-18-19---|
B|--p--p----15-------15--------15----------15-----------15------x-------------|
G|15-14-12----------------------------------------------------x---------------|
D|----------------------------------------------------------------------------|
A|----------------------------------------------------------------------------|
E|----------------------------------------------------------------------------|

p p p
E|15-14-12---~-----------------17---16-15-----17----------------------------~~|
B|----------15--------------x--------------17----17\15---12--15----p----------|
G|------------------------x--------------------------------------15-12---14---|
D|---------------------------------------------------------------------14--14-|
A|----------------------------------------------------------------------------|
E|----------------------------------------------------------------------------|

b 1/2 R p full 1/2
E|-----14-----(14)-12---15-----12---b---------p-----------b----R--p-----------|
B|---x---------------------15-------15----(15)-12-----12-14---(14)-12---------|
G|-x-----------------------------------------------15-------------------------|
D|----------------------------------------------------------------------------|
A|----------------------------------------------------------------------------|
E|----------------------------------------------------------------------------|

1/4
E|------------------~----------~-----------~----------------------------------|
B|----b--R----p-----------------------------------p--------p------------------|
G|---14--(14)--12--14--------(14)------11-------14-12----12-11---11-----------|
D|---------------------------------14------12\--------------------------------|
A|----------------------------------------------------------------------------|
E|----------------------------------------------------------------------------|

E|----------------------------------------------------------------------------|
B|----------------------------------------------------------------------------|
G|----p------------p----------------------------------------------------------|
D|--14-12\11-----12-11-------p------------------------------------12-13-14----|
A|-------------------------14-12\10-----------9--10---------12-14-------------|
E|---------------------------------------------------10/12\-------------------|

1/2 1/2 b full R
E|----------------------------------~----------------------------17-----(17)--|
B|---------b---R---------------b---R---------------------------x--------------|
G|-12-14--14--(14)---12--14---14--(14)-----12----14----------x----------------|
D|-----------------------------------------------------14---------------------|
A|----------------------------------------------------------------------------|
E|----------------------------------------------------------------------------|

b full R b full R p b 1 1/2 steps
E|--15---17---17-----(17)----15----17---17----(17)--15--17------------------|-|
B|----------------------------------------------------------17--------------|-|
G|--------------------------------------------------------------------------|-|
D|--------------------------------------------------------------------------|-|
A|--------------------------------------------------------------------------|-|
E|--------------------------------------------------------------------------|-|

************************************

| x Dead note
| (n) Ghost note
| h Hammer-on
| p Pull-off
| b Bend
| / Slide up
| \ Slide down
| ~ Vibrato
| . staccato (cut short--first Em chord) in Pantera version this arpeggio is let ring
| * slight bend [my own "add"?--as may be "2->4" slide in 1st measure]
| % eighth-note rest
| r "return" of bend
| === hold tone thru count (legato arpeggio)
| ^^^^ occasional variations at this point (listen to recording)

Log In to leave a comment

After registration we will return you to the same place
Comments
face-with-monocle
If you wait a bit, some comments may appear here...

Shhh...