Pantera logo

Cemetary Gates Pantera

  • 1
  • Share
  • Transposing
    0
  • Font Size
Pantera – Cemetary Gates
Darrel Lance Abbott, Rex Brown and Phillip Anselmo)

This transcription is only very rough, and in its infant years, so If
Anybody wants me to finish it off properly, you can email me on the address
Below.. I hope this comes in useful

All guitars tune down half a step (low to high: Eb, Ab, D, Gb, Bb, Eb)
Intro Riff
[e:-------------------------------------------------
B:--------------2--------------------0----0--------
G:-----------2-------2------------4----------4-----
D:--------2--------------------2-------------------
A:-----4----------------0--------------------------
E:--2-------------------------------------------0--

------------------------------0------------
--------0----0-------------2---------2-----
-----4----------4-------4---------------4--
--2----------------0-----------------------
-------------------------------------------
-------------------------------------------

E:-------------------------------------------------
B:--------------2--------------------0----0--------
G:-----------2-------2------------4----------4-----
D:--------2--------------------2-------------------
A:-----4----------------0--------------------------
E:--2-------------------------------------------0--]
End Intro Riff
[e:-------------------------------0--------
B:--------0----0----------2--------2------
G:-----4----------4---------4--------4----
D:--2----------------0--------0--------0--
A:----------------------------------------
E:----------------------------------------]
Fill #1 End Fill #1
[e:------0-------------0------------------0-------------0-------
B:------3-/-6---------5-/-7--------------0-------------0-------
G:--4---4-/-5---------6-/-7----7---------7-/-9---------9-/-11--
D:-----------------0-----------------0-------------0-----------
A:-------------------------------------------------------------
E:-------------------------------------------------------------]
Rhythm Fig 2 under guitar solo #1
[e:--2--2-------2----------2--2--------2--------
B:--5-----5-------5-------4-----4--------4-----
G:--2--------2-------2----2--------2--------2--
D:--2---------------------2--------------------
A:--4---------------------4--------------------
E:--2---------------------2--------------------]
End of Rhythm Fig 2 under guitar solo #1
[e:--2--2--------2----------2--2--------2--------
B:--3-----3--------3-------2-----2--------2-----
G:--2--------2--------2----2--------2--------2--
D:--2----------------------2--------------------
A:--4----------------------4--------------------
E:--2----------------------2--------------------]
Fill #2 (Rhy Fig 3 Heavy Distortion)
[e:------------------------------------------------------------------------
B:-----2--5---------------------------------------------------------------
G:--4---------------------------------------------------------------------
D:-------------------2-----------------------------------------9~---------
A:-------------2--4-------2--2--2--2--2--7--6--7----8~---7--8-------7--8--
E:------------------------0--0--0--0--0-----------------------------------]
P.H. P.H.
End of Rhy Fig 3
[e:-------------------------------------------------
B:-------------------------------------------------
G:-------------------------------------------------
D:-------------------------------------------------
A:--2--2--2--2--2--7--6--7----8~---6--7-----6~-----
E:--0--0--0--0--0------------------------8------7--]
P.H. P.H.
Rhy Fig 4 End of Rhy Fig 4
[e:-------------------------------------------------
B:-------------------------------------------------
G:-------------------------------------------------
D:-----------2--2--2--2--4----4--4--4--5-----------
A:--4--4--4--0--0--0--0--2----2--2--2--3-----2--3--
E:--2--2--2----------------------------------0--1--]

-

Tune down 1/2 step (low to high: Eb, Ab, Db, Gb, Bb, Eb)
Intro Asus2 (Fill1) E5 Dmaj7 (Fill2)
[E--------------------------------------------------------------0----------
B-------------2--------------0---0------------0---0----------2-----2------
G-----------2----2---------4-------4--------4-------4------4----------4---
D---------2--------------2----------------2------------0------------------
A-------4-----------0-----------------------------------------------------
E-----2-------------------------------0-----------------------------------

F#m7 Asus2 E5 Dmaj7
E----------------------------------------------------------0--------------
B----------2-------------0---0-----------0--0-------2--------2------------
G--------2----2--------4-------4-------4------4-------4--------4----------
D------2-------------2---------------2----------0-------0--------0--------
A----4-----------0--------------------------------------------------------
E--2-----------------------------0----------------------------------------]

Reverend Reverend is this some...
F#m7 Asus2 E5 Dmaj7
[E----------------------------------------------------------0--------------
B-----------2-------------0--0------------0---0---------2------2----------
G---------2----2-------4-------4-------4--------4----4--------------4-----
D-------2-----------2---------------2-------------0-----------------------
A----4-----------0--------------------------------------------------------
E--2-----------------------------0----------------------------------------]

@@@@@
Fill 1
[E-------------------------------------------------------------------------
B-------------------------------------------------------------------------
G-------------------------------------------------------------------------
D
A---0--2--2_4--2------0---------------------------------------------------
E------------------------4--2--0------------------------------------------]

Fill2
[E----------------------------------------------------------------------------
B-------/^\-----/^^^\--------------------------------------------------------
G------6-\-4----6-\--2-------------------------------------------------------
D----------------------------------------------------------------------------
A
E----------------------------------------------------------------------------]
@@@@@
Crucified for no sins An Image benaeth me
F#m7 Asus2 E5 Dmaj7
[E--------------------------------------------------------------0----------
B-------------2--------------0---0------------0---0----------2-----2------
G-----------2----2---------4-------4--------4-------4------4----------4---
D---------2--------------2----------------2------------0----------------0-
A-------4-----------0-----------------------------------------------------
E-----2-------------------------------0-----------------------------------]
What's within our plans for life It all seems so unreal
F#m7 Asus2 E5 Dmaj7
[E--------------------------------------------------------------0----------
B-------------2--------------0---0------------0---0----------2-----2------
G-----------2----2---------4-------4--------4-------4------4----------4---
D---------2--------------2----------------2------------0------------------
A-------4-----------0-----------------------------------------------------
E-----2-------------------------------0-----------------------------------]
Iпm a man couldn't half feel this world left in my misery
F#m7 Asus2 E5 Dmaj7
[E-------------------------------------------------------------0^^^\-----0------
B-------------2--------------0---0------------0---0-----------3-/-5-----5-/-7--
G-----------2----2---------4-------4--------4-------4------4--4-/-6-----6-/-7--
D---------2--------------2----------------2------------0--------------0--------
A-------4-----------0----------------------------------------------------------
E-----2-------------------------------0----------------------------------------]
Bla
Bla
Bla

-

--------------2----------------0-----0----------------0-----0------
-----------2-----2----------4-----------4----------4---------------
--------2----------------2----------------------2------------------
-----4--------------0----------------------------------------------
--2----------------------------------------0-----------------------

[--------------0----------------------------------------------------
-----------2-----2-------------------2----------------0-----0------
4-------4-----------4-------------2-----2----------4---------------
---0---------------------------2----------------2------------------
----------------------------4--------------0-----------------------
-------------------------2-----------------------------------------]

Reverend
[----------------------------------------0-------------------------
--------------0-----0----------2-----------2----------------------
4----------4-----------4----------4-----------4-------------------
--------2-----------------0----------0-----------0-----------2----
----------------------------------------------------------4-------
---0---------------------------------------------------2----------]

Reverend etc. 1st Guitar Solo
[------------------------------------------------------------------
---2-----------------0-----0--------------------------------------
2-----2-----------4------------4--------9--(9)~~~--8--~~~--7------
---------------2--------------------------------------------------
---------0--------------------------------------------------------
------------------------------------------------------------------]

Full 1/2 Full

---------10-----(10)--------9-----(9)--------12-----(12)----------
-----x----------------6----------------9------------------8-------
--x---------------------------------------------------------------
------------------------------------------------------------------
------------------------------------------------------------------

Full Pw/ bar P.H.Full Full
[-------------------------------------------------------------------
-15----------------------------------------------------------------
--------7--~~~--\\----------------4-----(4)-----(4)-----(4)--6-----
------------------------------4------------------------------------
--------------------------x----------------------------------------
-----------------------x-------------------------------------------]

Full FullFull Full Full Full
[-------------------------------------------------------------------
------------5--(5)----(5)~~~---5---(5)---(5)-----(5)---(5)~~~------
\4p--2-------------------------------------------------------------
--------2----------------------------------------------------------

-------------------------------------------------------------------]

1/2

-------------------12--(12)/15----(15)\12--15/17--(17)p14--17------
---------6--(6)----------------------------------------------------
-----x-------------------------------------------------------------
--x----------------------------------------------------------------
-------------------------------------------------------------------

P.M.
[--------------------------------------------------------------------
P15----(15)p12--15/17--(17)p14--17--17~~~~~~------------------------

------------------------------------------------2---2--2--2--2------
------------------------------------------------0---0--0--0--0------
--------------------------------------------------------------------]

P.H. P.H. P.M.
[-------------------------------------------------------------------
-------------------------------------------------------------------

----------------------9----------2---2--2--2--2--------------------
7--6--7-----8--7--8------7--8----0---0--0--0--0--7--6--7-----------
-------------------------------------------------------------------]

P.H. P.H. etc.
[------------------------------------------------------------------
------------------------------------------------------------------

-------------------------------------------2--2--2--2--4----4-----
-8--6--7------6-----------2--3----4--4--4--0--0--0--0--2----2-----
----------8------7~~~-----0--1----2--2--2-------------------------]

etc. 2nd Guitar Solo
[--------------------------------------------------5-----5--4------
------------------------2-----2--5/7\5--3p2--~~~-----2------------
---------------------------4--------------------------------------
4--4--5-----------------------------------------------------------
2--2--3--2--3-----4-----------------------------------------------
---------0--1-----2-----------------------------------------------]

----12--------9------------12-----10--(10)~~~--10p9--------9------
--------9-----10----5/9--------9-----------------------12---------
/9---------9------------------------------------------------------
------------------------------------------------------------------
------------------------------------------------------------------
------------------------------------------------------------------

Full Full
[------------------------------------------7-----7-------------------
10~~~--(10)\/10--9--8--7--6--5h6----7~~~-----7------7~~~---(7)------
--------------------------------------------------------------------
--------------------------------------------------------------------

--------------------------------------------------------------------]

Full Tap Tap
[----------7---------------------------------7h9h10---12p10p9p7h9-----
~~~--(7)------7------8p(7)--(7)p(5)~~~--/9---------------------------
---------------------------------------------------------------------
---------------------------------------------------------------------

---------------------------------------------------------------------]

Tap Tap Tap Tap Tap
[h10---12/14--(14)p12p10-----14p10---14/16p14p12---15p12---15/17------
---------------------------------------------------------------------
---------------------------------------------------------------------
---------------------------------------------------------------------
---------------------------------------------------------------------
---------------------------------------------------------------------

(17)p16p14--14--19/21--17------17--------19--16------16--------------
---------------------------19--------19----------17------17~~~-------
---------------------------------------------------------------------

----------------------------------------------------------------7----
---------------------------------------------------------------------

--------------------------------------------------------------------

--------------------------------------------9--10--11--12-----------
------------------6--7--8--9--8--9--10--11--------------------------
7----7--8--9--10---------------------------------------------x------
--------------------------------------------------------------------]

P.SFull Full Full
[-----------------------------14------------------14------------------
-------------------------14------17p14-------14------17p14-----------
---6--------6----\---16------------------16------------------16------
X--------x-----------------------------------------------------------
------x--------------------------------------------------------------
---------------------------------------------------------------------]

Full Full Full Full
[----14------------------------14--------------14-------14-----------
14--------17p14-------14--14------17p14---17-------17-------17------
------------------16------------------------------------------------
--------------------------------------------------------------------
--------------------------------------------------------------------
--------------------------------------------------------------------

21p14--21p14--21p14--21p14--20--20p14--20--20p14--20p14----19h20-----
---------------------------------------------------------------------
---------------------------------------------------------------------
---------------------------------------------------------------------
---------------------------------------------------------------------
---------------------------------------------------------------------

P19p17------19h20p19p17------------------------14--16----17--16------
--------19---------------19--19--19--19~~~/17------------------------
---------------------------------------------------------------------
---------------------------------------------------------------------
---------------------------------------------------------------------
---------------------------------------------------------------------

14------14--17h19p17p14--14h17p14h17p14--14--14-----------------------
----17-------------------------------------------19p17p14--17p14------
----------------------------------------------------------------------
----------------------------------------------------------------------

----------------------------------------------------------------------]

--14h15p14h15p14------14---------------------------------------------
------------------17------17p14--16p14------14--------14h16p14-------
----------------------------------------16------1/16-----------------
---------------------------------------------------------------------
---------------------------------------------------------------------

W/ bar w/ bar w/ bar
[---------------------------------------------------------------------

-\(14)\----13p11\10-\---11p10p9--11p1p9--10p9p8----10p9p8------------
---------------------------------------------------------------------

---------------------------------------------------------------------]

W/ bar w/ barw/ bar P.dive w/ bar
[--------------------------------------------------------------------

-/9p(7)-/9----/6------------\\--------------------------------------
------------------------x-------------------------------------------
---------------------x----------------------------------------------
--------------------------------------------------------------------]

Log In to leave a comment

After registration we will return you to the same place
Comments
face-with-monocle
If you wait a bit, some comments may appear here...

Shhh...

Most Popular
You Might Like