Pacifier logo

Semi-normal Pacifier

  • 1
  • Share
  • Font Size
    15
Pacifier – Semi-normal
Song: Semi-normal
Album: Pacifier
Tuning: normal

For bass

Intro
G----------------------------------------------------------------
D----------------------------------------------------------------
A----------------------------------------------------------------
E----8-8-8-8-8-8-8-8-8-8-8-8-8-8-8-8-8-8-8-8-8-8-8-8-8-8-8-8-8-8- until main riff comes in

Main riff
G----------------------------------------------------------------
D----------------------------------------------------------------
A----------------------------------------------------------------
E----4-4-4-0-0-4-4-4-0-0-4-0-3-6--------------------------------- x4

Verse

G----------------------------------------------------------------
D----------------------------------------------------------------
A----------------------------------------------------------------
E----8-8-8-8-8-8-8-8-8-8-8-8-8-8-8-8-8-8-8-8-8-8-8-8-8-8-8-8-8-8-

G----------------------------------------------------------------
D----------------------------------------------------------------
A----------------------------------------------------------------
E----3-3-3-3-3-3-3-3-11-11-11-11-11-11--------------------------- x2

Chorus is main riff x4
Verse than chorus again

Bridge

G----------------------------------------------------------------
D----------------------------------------------------------------
A----3-3-3-5-6-6-6-6-8-8-8-1-1-3-3-3---------------------------
E----------------------------------------------------------------

G----------------------------------------------------------------
D----------------------------------------------------------------
A----------------------------------------------------------------
E---8-8-8-8-8-8-8-8-8-8-8-8-8-8-8-8-8-8-8-8-8-8-8-8-8-8-8-8-8-8-8

G----------------------------------------------------------------
D----------------------------------------------------------------
A----------------------------------------------------------------
E---3-3-3-3-3-3-3-3-11-11-11-11-11-11----------------------------

Than it goes into the chorus again until the end of the song

Well there it is a great song from a great band, i wish they would play it live.

Daniel Garrood

Log In to leave a comment

After registration we will return you to the same place
Comments
face-with-monocle
If you wait a bit, some comments may appear here...

Shhh...