• 0
  • Share
  • Font Size
    15
Pacifier – Run
INTRO
F|-----------------------------|-----------------------------|-----------------------------|
C|-----------------------------|-----------------------------|-----------------------------|
G|-66666666-55555555-0---------|-66666666-55555555-0---------|-66666666-55555555-0-1-1-1-1-|
C|---------------------3-3-3-3-|---------------------3-3-3-3-|-----------------------------|

F|-----------------------------|
C|-----------------------------|
G|-66666666-55555555-0---------|
C|---------------------3-3-3-3-|

VERSES
F|----------------------------|----------------------------|-----------------------------|
C|----------------------------|----------------------------|-----------------------------|
G|----------------------------|----------------------------|-----------------------------|
C|-66666666-1-1--0--1h3-3-3-3-|-66666666-1-1--0--1h3-3-3-3-|-66666666-1-1--0--1--0-0-0-0-|

F|----------------------------|
C|----------------------------|
G|----------------------------|
C|-66666666-1-1--0--1h3-3-3-3-|

CHORUS 1 (only)
F|-------------------------------------|-------------------------------------|
C|-------------------------------------|-------------------------------------|
G|-00000000-11111111-33333333-55555555-|-00000000-11111111-33333333-55555555-|
C|-------------------------------------|-------------------------------------|

F|-------------------------------------|----------------------------|
C|-------------------------------------|----------------------------|
G|-00000000-11111111-33333333-55555555-|----------------------------|
C|-------------------------------------|-66666666-1-1--0--1h3-3-3-3-|

BRIDGE
F|-----------------------------|------------------------------|-----------------------------|
C|-----------------------------|------------------------------|-----------------------------|
G|-66666666-55555555-0---------|-66666666-555555555-0---------|-66666666-55555555-0-1-1-1-1-|
C|---------------------3-3-3-3-|----------------------3-3-3-3-|-----------------------------|

F|-----------------------------|
C|-----------------------------|
G|-66666666-55555555-0---------|
C|---------------------3-3-3-3-|

CHORUS 2
F|--------------------------------------|-------------------------------------|
C|--------------------------------------|-------------------------------------|
G|-00000000-11111111-33333333-555555555-|-00000000-11111111-33333333-55555555-|
C|--------------------------------------|-------------------------------------|

F|--------------------------------------|-------------------------------------|
C|--------------------------------------|-------------------------------------|
G|-00000000-11111111-33333333-555555555-|-00000000-11111111-33333333-55555555-|
C|--------------------------------------|-------------------------------------|

TABBED BY DYLAN CLIFFORD dear_enemy@hotmail.com

Log In to leave a comment

After registration we will return you to the same place
Comments
face-with-monocle
If you wait a bit, some comments may appear here...

Shhh...