O.Torvald logo

Киев-Лондон O.Torvald

  • 0
  • Share
  • Transposing
    0
  • Font Size
O.Torvald – Киев-Лондон
Вступление
5.------2-3-2-------2-3-2-------2-3-2-------
6.-3-3---------3-3----------3-3------------1-1
2 раза, потом вступают барабаны.
5.------2-3-2-------2-3-2-------2-3-2-------
6.-3-3---------3-3----------3-3------------1-1

Первый куплет: на заднем плане опять же наше вступление, а именно:
5.------2-3-2--
6.-3-3---------
А на переднем плане играет акустическая гитара G D C

Припев:
A# G C
Київ і є мій Лондон
A# F [тема из начала]
Київ Лондон мій
A# G C
Лондон і є мій Київ
A# F [тема из начала]
В цьому впевнений

После припева играется начало, только чуть-чуть видоизмененнное:
5.------2-3-2-------2-3-2-------2-3-2----------
6.-3-3---------3-3----------3-3------------1-1-3
2 раза

2-ой куплет такой же, как и первый

Припев такой же

На сольняке припев

После сольняка
5.------2-3-2-------2-3-2-------2-3-2----------
6.-3-3---------3-3----------3-3------------1-1-3

А потом снова припев:) песня совсем не сложная для подбора и восприятия)

Log In to leave a comment

After registration we will return you to the same place
Comments
face-with-monocle
If you wait a bit, some comments may appear here...

Shhh...