Osbourne Ozzy logo

Over The Mountain Osbourne Ozzy

  • 8
  • Share
  • Font Size
    15
Osbourne Ozzy – Over The Mountain
=== Crankster's Ozzy Page
=== crankster@mailexcite.com

Transcriber - Ryan Silke

Over the Mountain
Ozzy Osbourne- Diary of A Madman

Intro x 4
Gb-------------------------------------
Db-------------------------------------
Ab-------------------------------------
Eb--0-5-4-4-4-4-4-4-4-4-4-4-4-4-4-4-4--

Gb----------
Db----------
Ab----------
Eb--0---2---

Verse x 4
Gb----------------------------------
Db----------------------------------
Ab-----------------------------4----
Eb-4-4-4-4-4-4-4-4-4-4-4-4-4-4------

Gb------------------------------------
Db------------------------------------
Ab------------------------------------
Eb-4-4-4-4-4-4-4-4-4-4-4-4-4-4-0--2---

Chorus
Gb--------------------------------------------------
Db--------------------------/4-------2--/4-------2--
Ab-- /7-------5--/7-------5-------2-4----------4-----
Eb-----0-5-7-------0-5-7-------2-----------2--------

Repeat Intro
Repeat Verse
Repeat Chorus
Repeat Intro

Interlude
Gb----------------------------------------------------------
Db----------------------------------------------------------
Ab--4---------4--2--------2--4-------2-4-2---0-2-0-2-0-2-0--
Eb------4--4---------2--2-------4--4------------------------

Gb--------------------------------------------------------
Db--------------------------------------------------------
Ab--4---------4--2--------2--4----------------------------
Eb------4--4---------2--2----------2-4-5---4-5-4-5-4-5-4--

        x 4
Gb------------------------------
Db------------------------------
Ab--66-6---66-6---66-6---66-----
Eb--------------------------4--

Solo
Gb---------------------------------------------------------------
Db---------------------------------------------------------------
Ab---------------------------------------------------------2--3--
Eb--4-4-4-4-4-4-4-4-4-4-4-4-4-4-4-4-4-4-4-4-4-4-4-4-4-4-4--------

Gb-----------------------------------------------------------------
Db-----------------------------------------------------------------
Ab--4-4-4-4-4-4-4-4-4-4-4-4-0-0-2-2-4-4-4-4-4-4-4-4-4-4-4----------
Eb--------------------------------------------------------0-0-2-2--

Gb-------------------------------------------------------------------
Db-------------------------------------------------------------------
Ab-------------------------------------------------------------------
Eb--4-4-4-4-4-4-4-4-4-4-4-4-0-0-2-2-4-4-4-4-4-4-4-4-4-4-4-4-4-4-4-4--

Gb----------------------------------------
Db---------R-----------R----------R-------
Ab----------------------------------------
Eb--0-0---------0-0--------0-0------------

Drum Intro
Repeat Intro
Repeat Verse
Repeat Interlude

                x 2
Gb-------------------------------------
Db-------------------------------------
Ab-------------------------------------
Eb--4-4-4-4-4-4-4-4-4-4-4-4-4-0-0-2-2--

Gb-------------------------------------------
Db-------------------------------------------
Ab---------------/6---4---------/7-----------
Eb--4---2---0-----------------------5-4-----

Log In to leave a comment

After registration we will return you to the same place
Comments
face-with-monocle
If you wait a bit, some comments may appear here...

Shhh...