Osbourne Ozzy logo

Gets Me Through Osbourne Ozzy

  • 0
  • Share
  • Font Size
Osbourne Ozzy – Gets Me Through
Ozzy Osbourne - Gets Me Through
Standard Tuning (E-A- D-G)

That's the first tab that I wrote. I hope it will be OK. So if I did
A mistake in the song, just e-mail me to [email protected]

/= Slide

H= Hammer-on(Keyboard Intro)

Part I:

G|------------------------------------------------------------|
D|------------------------------------------------------------|
A|----------------------------------------5h7-----------------|
E|--12/---000-2b--00-2b-0-0000-2b-00-0-5h7--------------------|

Part II:

G|------------------------------------------------------------|
D|------------------------------------------------------------|
A|------------------------------------------------------------|
E|--000-3-00-3-0-0000-3-00-3-00-0-----------------------------|

Part III

G|------------------------------------------------------------|
D|------------------------------------------------------------|
A|--777777777777777733333333333333337777777777777777----------|
E|------------------------------------------------------------|

G|----------------------|
D|--------------0000----|
A|--333333332222--------|
E|----------------------|

Part IV(Guitar Solo):

G|--------------------------00000000--------------------------|
D|--222222222222222222222222----------------------------------|
A|----------------------------------333333333333333333333333--|
E|------------------------------------------------------------|

G|--00000000------------------------00000000------------------|
D|----------222222222222222222222222--------------------------|
A|------------------------------------------------------------|
E|------------------------------------------------------------|

G|------------------------------------------------------------|
D|----------------------------------00000000------------------|
A|--33333333333333333333333322222222--------------------------|
E|------------------------------------------------------------|

Part V:

G|---------------------|
D|---------------------|
A|---------------------|
E|--543--543--5432-----|

Part VI:

G|---------------------|
D|-------0-----022-----|
A|--2------------------|
E|---------------------|

Part VII:

G|---------------------------------------|
D|---------------------------------------|
A|--------------------------------5h7----|
E|--000-2b-00-2b-00-2b-00-2b-005h7-------|

Song order:

1. Keyboard intro (0:00 to 0:28)
2. Part I x2 (0:28 to 0:42)
3. Part II x4 (0:42 to 1:08)
4. Part I x2 (1:08 to 1:21)
5. Part II x4 (1:21 to 1:47)
6. Part I x2 (1:47 to 2:00)
7. Part III x1 (2:00 to 2:26)
8. Part IV(Guitar Solo) x1 (2:26 to 2:52)
9. Part V x1 (2:52 to 3:05)
10. Part I x2 (3:05 to 3:18)
11. Part II x4 (3:18 to 3:44)
12. Part VI x1 (3:44 to 3:48)
13. Part I x4 (3:48 to 4:13)
14. Part VII x2 (4:13 to 4:26)
15. Part I x4 (4:26 to 5:07)

Enjoy it! It's not a easy song but not a tough one. If you practice
It, you'll be able to play it. It's a very good song so don't give
Up!
===========Ozzy Osbourne - gets me through
Alan Mcintyre ([email protected])g---------------------------------------
D---------------------------------------
A-------------------------------5h7-----
E-12-000-2-00-2-0000-2-000-5h7---------

^main riff

G---------------------------------------
D---------------------------------------
A---------------------------------------
E-00-0-p1-00-p1-0-000-p1-0-0p1----------

^verses

I couldnt figure out the bass during the solo cos all you can hear
Is guitar but after the solo it go's

G---------------------------------------
D---------------------------------------
A---------------------------------------
E-5-4-3----5-4-3----5-4-3/-8------------

So thats basicly how it go's

Email me for coments or [email protected]
[email protected]
Or talk to me on msn messenger

Log In to leave a comment

After registration we will return you to the same place
Comments
face-with-monocle
If you wait a bit, some comments may appear here...

Shhh...