Loading...
Osbourne Ozzy logo

Crazy Train Osbourne Ozzy

  • 0
  • Share
  • Transposing
    0
  • Font Size
Intro:
E|------------------------------------|--
B|------------------------------------|--
G|- Play tree times -|--
D|------------------------------------|--
A|------4---5---4---------------------|--
M|--2-2---2---2---2---7-5-4-5--7-5-4-5|--

E|------------------------------------|--
B|------------------------------------|--
G|------------------------------------|--
D|------------------------------------|--
A|------4---5---4-----5---7-----------|--
M|--2-2---2---2---2-------------------|--

Riff:
E|--------------------------------------
B|--------------------------------------
G|--------------------------------------
D|----7-7-7-7-7-7-7-7-7-7-7-7-7-7-------
A|----5-5-5-7-5-7-5-7-5-7-7-7-7-7-------
E|----5-5-5-5-5-5-5-5-5-5-5-5-5-5-------
Crazy, but that's how it goes...

Am
Crazy, but that's how it goes
Am
Millions of people living as foes
Am
Maybe it's not to late
Am
To learn how to love
Am
And forget how to hate

F#m A
Mental wounds not healing
F#m D
Life's a bitter shame
A E F#m
I'm going off the rails on a crazy train

Am
I've listened to preachers
Am
I've listened to fools
Am
I've watched all the dropouts
Am
Who make their own rules
Am
One person conditioned to rule and control
Am
The media sells it and you have the role

F#m A
Mental wounds still screaming
F#m D
Driving me insane
A E F#m
I'm going off the rails on a crazy train

F#m A F#m E
I know that things are going wrong for me
F#m A E
You gotta listen to my words
D E F#m
Yeh-h

Am
Heirs of a cold war
Am
That's what we've become
Am
Inheriting troubles I'm mentally numb
Am
Crazy, I just cannot bear
Am
I'm living with something that just isn't fair

F#m A
Mental wounds not healing
F#m D
Who and what's to blame
A E F#m
I'm going off the rails on a crazy train

Log In to leave a comment

After registration we will return you to the same place
Comments
face-with-monocle
If you wait a bit, some comments may appear here...

Shhh...