Opeth logo

Black Rose Immortal Opeth

  • 0
  • Share
  • Font Size
Opeth – Black Rose Immortal
OPETH - Black Rose Immortal
From the Album Morningrise
Copyright 1996, Candlelight
Version 1.0 - august 2000

Transcribed by: Sperling Andor ([email protected])

For Questions, Comments, Newest Version, or Corrections contact me.

Check Out Death Warp, With More Transcriptions On It:

Key: h - hammer on
p - pull off
s - slide
t - tremolo
... - echo
() - silently, ghost note, not always
X - repeat aX times

Tune Gtr to EADGBE - standard

OPETH - black rose immortal

0:02 - 0:51 play 5 times
|---------------------------------------------------------------------------|
|---------------------------------------------------------------------------|
|--7-7-7-7-7-7-7-7--11s10-10-10-10-10-10-10-10--14s13-13-13-13-13-13-13-13--|
|--7-7-7-7-7-7-7-7--11s10-10-10-10-10-10-10-10--14s13-13-13-13-13-13-13-13--|
|--5-5-5-5-5-5-5-5---9s-8--8--8--8--8--8--8--8--12s11-11-11-11-11-11-11-11--|
|---------------------------------------------------------------------------|

|---------------------------------------------------------------------------|
|---------------------------------------------------------------------------|
|--9s10-10-10-10-10-10-10-10-s9-6s------------------------------------------|
|--9s10-10-10-10-10-10-10-10-s9-6s------------------------------------------|
|--7s-8--8--8--8--8--8--8--8-s7-4s------------------------------------------|
|---------------------------------------------------------------------------|

0:52 - 1:13 play 2 times (after the line just for second time)
|-----------------------------------------------|-----|
|-----------------------------------------------|-----|
|-----------------------------5t----------------|-----|
|--7t----------------------8t----8t-7t-7-5------|-----|
|-----8t-5t-5-7-8-7tttt--------------------8-7--|--5--|
|-----------------------6t----------------------|-----|

1:14 - 1:18 play 2 times
|---------------------------|
|---------------------------|
|---------------------------|
|---------------------------|
|--5---5-5---5-7---8--------|
|----------8---------8-8-8--|

1:19 - 1:52 play 7 times
|---------------------------------------------|
|---------------------------------------------|
|------------------------------------------5--|
|--7---7-7-5---5---------7---7-7-5---5---7----|
|------------8-----8-7-------------8----------|
|---------------------------------------------|

1:53 - 1:56 play 1 time (not sure)
|------------------------------------------------|
|------------------------------------------------|
|------4-----4-----2-----0------4-----2-----0----|
|----2-----2-----2-----2------2-----2-----2------|
|--0-----0-----0-----0------0-----0-----0-----0--|
|------------------------------------------------|

1:57 - 2:15 play 4 times
|------------------------------------------------|
|------------------------------------------------|
|------4-----4-----2-----0------4-----2-----0----| gtr.1
|----2-----2-----2-----2------2-----2-----2------|
|--0-----0-----0-----0------0-----0-----0-----0--|
|------------------------------------------------|
| |
|------------------------------------------------|
|------------------------------------------------|
|--2---4-2p0---0---------2---4-5---2-4---2-4-----| gtr.2
|------------2---2-0-2---------------------------|
|------------------------------------------------|
|------------------------------------------------|

2:16 : 2:24 play 1 time
|-----------------------------------------------------|
|--------------5-------------------------5------------|
|----------------7-5-7-5-4-----------------7-5-7------|
|--7---7-7-5h7---------------7---7-7-5-7--------------|
|-----------------------------------------------------|
|-----------------------------------------------------|

|-----------------------------------------------------|
|--------------5--------------------------------------|
|----------------7-5-7-5-4-----4h5-4------------------|
|--7---7-7-5-7---------------7-------7-5-7-5---5------|
|--------------------------------------------7---7-5--|
|-----------------------------------------------------|

2:25 : 2:42 play 4 times
|-------------------------------------------------|
|--------------5-------------------------5--------|
|----------------7-5-7-5-4-----------------7-5-7--|
|--7---7-7-5-7---------------7---7-7-5-7----------|
|-------------------------------------------------|
|-------------------------------------------------|

2:43 : 2:51 play 1 time
|-----------------------------------------------------|
|--------------5-------------------------5------------|
|----------------7-5-7-5-4-----------------7-5-7------|
|--7---7-7-5h7---------------7---7-7-5-7--------------|
|-----------------------------------------------------|
|-----------------------------------------------------|

|-----------------------------------------------------|
|--------------5--------------------------------------|
|----------------7-5-7-5-4-----4h5-4------------------|
|--7---7-7-5-7---------------7-------7-5-7-5---5------|
|--------------------------------------------7---7-5--|
|-----------------------------------------------------|

2:52 : 3:05 play 3 time
|-------------------------------------------------|
|--------------5-------------------------5--------|
|----------------7-5-7-5-4-----------------7-5-7--|
|--7---7-7-5-7---------------7---7-7-5-7----------|
|-------------------------------------------------|
|-------------------------------------------------|

3:06 : 3:10 play 1 time
|--------------------------------------------------------|
|--------------5-----------------------------------------|
|----------------7-5-7-5-4-----4h5-4---------------------|
|--7---7-7-5-7---------------7-------7-5-7-5---5---------|
|--------------------------------------------7---7-5--7--|
|--------------------------------------------------------|

3:11 - 3:24 play 3 times
|-------------------------------------------|
|-------------------------------------------|
|-------------5--5--5---7--7-7--7--9--9--9--|
|--7--7-7--7--5--5--5---7--7-7--7--9--9--9--|
|--7--7-7--7--3--3--3---5--5-5--5--7--7--7--|
|--5--5-5--5--------------------------------|

3:25 - 3:42 play 4 times
|---------------------------------------------------|
|---------------------------------------------------|
|--------------5-5-5-5-5-5-7-7-7-7-7-7-9-9-9-9-9-9--|
|--7-7-7-7-7-7-5-5-5-5-5-5-7-7-7-7-7-7-9-9-9-9-9-9--|
|--7-7-7-7-7-7-3-3-3-3-3-3-5-5-5-5-5-5-7-7-7-7-7-7--|
|--5-5-5-5-5-5--------------------------------------|

3:46 - 4:05 play 8 times (just from the line)
|-----|----------------------------|
|-----|----------------------------|
|--7--|--7-7-7-6s7-----------------|
|--7--|--7-7-7-6s7-7--6-6-6-3-3-3--|
|--5--|--5-5-5-4s5-7--6-6-6-3-3-3--|
|-----|------------5--4-4-4-1-1-1--|

4:12 - 4:55 play 3 times
|----------4-------------------------------0-------------0--------|
|------------4-------------------4-------------0-------------0----|
|--------------4---------4-----4----------------------------------|
|--------6-------------6-----6-----------2-------------2-------2--|
|------6-------------6-----6-----------2-------------2------------|
|--4-------------4-------------------0-------------0--------------|

|----------6-------------6-----------------5-------------5--------|
|------------6---------------6---------------5---------------5----|
|--------------6---------------6---------------5---------------5--|
|--------8-------------8-----------------7-------------7----------|
|------8-------------8-----------------7-------------7------------|
|--6-------------6-----------------5-------------5----------------|

4:56 - 5:08 play 1 time
|----------4-------------------------------0-------------0--------|
|------------4-------------------4-------------0-------------0----|
|--------------4---------4-----4----------------------------------|
|--------6-------------6-----6-----------2-------------2-------2--|
|------6-------------6-----6-----------2-------------2------------|
|--4-------------4-------------------0-------------0--------------|

|----------6-------------6---------5------------------------------|
|------------6---------------6-----5------------------------------|
|--------------6---------------6---5------------------------------|
|--------8-------------8-----------7------------------------------|
|------8-------------8-------------7------------------------------|
|--6-------------6-----------------5------------------------------|

5:09 - 5:48 play 3 times
|--------------------------------------------------------------|
|--------------------------------------------------------------|
|--------------------------------------------------------------|
|--6--6-6-6--6-6--6-6-6-7-7-7-7--2--2-2-2--2-2--2-2-2-2-2-2-2--|
|--6--6-6-6--6-6--6-6-6-7-7-7-7--2--2-2-2--2-2--2-2-2-2-2-2-2--|
|--4--4-4-4--4-4--4-4-4-5-5-5-5--0--0-0-0--0-0--0-0-0-0-0-0-0--|

|--------------------------------------------------------------|
|--------------------------------------------------------------|
|--------------------------------------------------------------|
|--8--8-8-8--8-8--8-8-10--8--7--7-7-7--7-7--7-7-7-7-7-7-7------|
|--8--8-8-8--8-8--8-8-10--8--7--7-7-7--7-7--7-7-7-7-7-7-7------|
|--6--6-6-6--6-6--6-6-8---6--5--5-5-5--5-5--5-5-5-5-5-5-5------|

5:49 - 6:03 play 1 time
|--------------------------------------------------------------|
|--------------------------------------------------------------|
|--------------------------------------------------------------|
|--6--6-6-6--6-6--6-6-6-7-7-7-7--2--2-2-2--2-2--2-2-2-2-2-2-2--|
|--6--6-6-6--6-6--6-6-6-7-7-7-7--2--2-2-2--2-2--2-2-2-2-2-2-2--|
|--4--4-4-4--4-4--4-4-4-5-5-5-5--0--0-0-0--0-0--0-0-0-0-0-0-0--|

|---------------------------------------5--------4---------0---|
|---------------------------------------5--------4---------0---|
|--------------------------------------------------------------|
|--8--8-8-8--8-8--8-8-8-8-8-8-8-------7--------6-----------2---|
|--8--8-8-8--8-8--8-8-8-8-8-8-8-----7--------6----------2------|
|--6--6-6-6--6-6--6-6-6-6-6-6-6---5--------4--------0----------|

6:04 - 6:29 play 4 times
|--------------------------------------------------------|
|--------------------------------------------------------|
|--------------------------------------------------------|
|----------------------------------------6h7-10---9-7-6--|
|--7---7-7h8-8p7-7---8-8---5h7-8---8-7h8-----------------|
|--0-----------------------------------------------------|

6:30 - 6:56 play 2 times
|-----------------------------------------------------|
|------------------------------5---5-5----------------|
|----------------------------5-----------7-5-4---5-4--|
|--------------------------5--------------------------|
|------------5-7-5-----7------------------------------|
|--5---5-5-----------7--------------------------------|

|-----------------------------------------------------|
|------------------------------5---5-5----------------|
|----------------------------5-----------7-5-4---5-7--|
|--------------------------5--------------------------|
|------------5-7-5-----7------------------------------|
|--5---5-5-----------7--------------------------------|

6:57 - 7:21 play 4 times
|--------------------------------------------------------|
|--------------------------------------------------------|
|--------------------------------------------------------|
|----------------------------------------6h7-10---9-7-6--|
|--7---7-7h8-8p7-7---8-8---5h7-8---8-7h8-----------------|
|--0-----------------------------------------------------|

7:22 - 7:27 just hold it
|-----|
|-----|
|-----|
|--2--|
|--2--|
|--0--|

7:28 - 7:31 play 2 times (maybe the bass plays it) ! tune down DADGHe
|---------------------|
|---------------------|
|---------------------|
|---------------------|
|---------------------|
|--2-2-2-2-2-2-2-3-0--|

7:32 - 7:35 play 1 time
|-------------------------------|
|-------------------------------|
|-------------------------------|
|-------------------------------|
|--7-7-7-7-7-7-7-8-5-7-7-7-7-7--|
|-------------------------------|

7:36 - 7:43 play 4 times (you can play the slides with h/p technic)
|---------------------------------|
|---------------------------------|
|-------------------10-10-10-9-7--|
|--9s10s9s10s9s10s9---------------|
|---------------------------------|
|---------------------------------|

7:44 - 7:47 play 2 times
|---------------------------|
|---------------------------|
|----------------8-8-8-7-5--|
|--7s8s7s8s7s8s7------------|
|---------------------------|
|---------------------------|

7:48 - 7:59 play 6 times
|---------------------------------|
|---------------------------------|
|-------------------10-10-10-9-7--|
|--9s10s9s10s9s10s9---------------|
|---------------------------------|
|---------------------------------|

8:00 - 8:03 play 2 times
|---------------------------|
|---------------------------|
|----------------8-8-8-7-5--|
|--7s8s7s8s7s8s7------------|
|---------------------------|
|---------------------------|

8:04 - 8:10 play 4 times
|---------------------------------|
|---------------------------------|
|-------------------10-10-10-9-7--|
|--9s10s9s10s9s10s9---------------|
|---------------------------------|
|---------------------------------|

8:11 - 8:28 SOLO (can't tab)

8:29 - 8:50 play 8 times (very fast)
|--------------------------------------------------------|
|--------------------------------------------------------|
|-------------10-10-8-10-8--10-10-10-10-10---------------|
|--8-8-8-8-8--------------------------------11-11-10-10--|
|--------------------------------------------------------|
|--------------------------------------------------------|

8:51 - 8:58 play 1 time (let ring)
|-------------|
|-------------|
|-------------|
|--8---6---5--|
|--8---6---5--|
|--6---4---3--|

8:58 - 9:42 SYNTH (can't tab)

! the following parts probably played on two guitars... but how?
(so i transcribed it on single guitar)

9:43 - 10:11 play 4 times
|----------------------------------------------------------------|
|---------------------------------------1---1-1---1h3-1----------|
|---------------------0h2-2-0-2---2h3-3-----------------3-2-3-2--|
|--0-------------------------------------------------------------|
|----3-----------1h3-(3)-----------------------------------------|
|------3---1h3------------------------1--------------------------|

10:12 - 10:55 play 6 times (just from the line)
|-------|----------3------------------------------------------|
|-------|----------3---------3-4-----------3------------------|
|-------|--------3---------5---5---------3-3------------------|
|--5-3--|------5---------5-------------5----------------------|
|-------|----5---------3-------------5---------5---3-1-0------|
|-------|--3-----------------------3-----------------------3--|

10:56 - 11:23 play 4 times
|----------------------------------------------------------------|
|---------------------------------------1---1-1---1h3-1----------|
|---------------------0h2-2-0-2---2h3-3-----------------3-2-3-2--|
|--0-------------------------------------------------------------|
|----3-----------1h3-(3)-----------------------------------------|
|------3---1h3------------------------1--------------------------|

11:24 - 11:38 play 2 times (just from the line)
|-------|----------3------------------------------------------|
|-------|----------3---------3-4-----------3------------------|
|-------|--------3---------5---5---------3-3------------------|
|--5-3--|------5---------5-------------5----------------------|
|-------|----5---------3-------------5---------5---3-1-0------|
|-------|--3-----------------------3-----------------------3--|

11:39 - 11:45 play 1 time
|----------3----------------------------------------|
|----------3---------3-4-----------3----------------|
|--------3---------5---5---------3-3----------------|
|------5---------5-------------5--------------------|
|----5---------3-------------5---------5-3-1-0------|
|--3-----------------------3---------------------3--|

11:46 - 11:55 play 1 time
|---------3------------------------------------------------|
|---------3---------3-4-----------3------------------------|
|-------3---------5---5---------3-3------------------------|
|-----5---------5-------------5----------------------------|
|---5---------3-------------5---------5---3--1--0----------|
|-3-----------------------3-------------------------3---0--|

11:56 - 12:08 play 2 times
|-----------------------------------|
|-----------------------------------|
|-----------------------------------|
|--2---2-----2---2-4s5-7---7-5s4-4--|
|--------2h5------------------------|
|--0--------------------------------|

12:09 - 12:21 play 1 time (played by 2 guitars but i can't hear the 2nd)
|-------------------------------------------------------------------------5--|
|-------------------------------------------------------------------------5--|
|-----------------------------------------------------------------------5----|
|--2--2-----2---2-4s5-7---7-5s4-4---0---0-0---2---2-----2---2-4s5-----7------|
|-------2h5---------------------------2-------------2h5-------------7--------|
|--0------------------------------------------0-------------------5----------|

12:22 - 12:46 play 4 times
|---------------------------------------------|
|---------------------------------------------|
|---------------------------------------------|
|------------------4h5-7---7-5p4-4------------|
|--7---7---5h7---7-------------------5---5-5--|
|--0-----7-----------------------------7------|

12:47 - 13:12 play 4 times
|-------------------------------------------|
|-------------------------------------------|
|-------------------------------------------|
|--5---5-4---5---4--5h7-7---7-5s4-4---------|
|----------7--------------------------5-----|
|----------------------------------------7--|

13:13 - 13:38 play 2 times
|----------------------------------------------------------------------------|
|----------------------------------------------------------------------------|
|--------------------------------------------------------------------------4-|
|--5---5-4s2-4---4--5h7-7---7-5s4-4-------------5p4h5-4---4--5h7-7---7-4h7---|
|-------------------------------------5------7-------------------------------|
|----------------------------------------7-----------------------------------|

13:39 - 14:29 play 4 times
|--------------------------------------------2p0------------------|
|----3-3-3-3---3-3---2p0h2-------3-3-3-3---3-----2h3--------------|
|--4-----------------------2---4---------------------4------------|
|-----------------------------------------------------------------|
|-----------------------------------------------------------------|
|-----------------------------------------------------------------|

|-----------------------------------------------------------------|
|--------------------3-----------------2-3p2-----------2-3p2------|
|--4p2-2h4-4-4-4---4---4-2-4---------4-------4-------4-------4----|
|----------------------------4-----4-----------4---4-----------4--|
|--------------------------------2---------------2----------------|
|-----------------------------------------------------------------|

14:30 - 14:48 almost the same as the previous but acoustic and just once
|------------------------------------------2p0----------------------|
|----3-3-3-3---3-3-2p0h2-------3-3-3-3---3-----2h3------------------|
|--4---------------------2---4---------------------4----------------|
|-------------------------------------------------------------------|
|-------------------------------------------------------------------|
|-------------------------------------------------------------------|

|----------------------------------------------------------------2--|
|--------------------3-----------------------2---3-p-2-----------2--|
|--4p2-2h4-4-4-4---4---4-2-4-------------4---------------4-------4--|
|----------------------------4-------4-----------------------4---4--|
|--------------------------------2-------------------------------2--|
|----------------------------------------------------------------2--|

14:49 - 15:26 play 4 times
|----------------------------------------------------(0)--|
|------------------3-------------3-------------3------3---|
|--------------------4-------------4-4-4---------4----4---|
|----4h5-5-5-----5-----5-4-----5-------------5-----5-(5)--|
|---------------------------------------------------------|
|--0------------------------------------------------------|

15:27 - 15:36 play 8 times (from the line only)
|-----|---------------|
|-----|---------------|
|-----|--------0------|
|-----|----4-------4--|
|--6--|------6---6----|
|-----|--0------------|

15:37 - 16:14 play 4 times
|----------------------------------------------------(0)--|
|------------------3-------------3-------------3------3---|
|--------------------4-------------4-4-4---------4----4---|
|----4h5-5-5-----5-----5-4-----5-------------5-----5-(5)--|
|---------------------------------------------------------|
|--0------------------------------------------------------|

16:15 - 16:24 play 8 times (between the lines only)
|-----|---------------|-----|
|-----|---------------|-----|
|-----|--------0------|-----|
|-----|----4-------4--|-----|
|--6--|------6---6----|--6--|
|-----|--0------------|-----|

16:25 - 16:35 (bridge voices)
|-----------------------------|
|-----------------------------|
|--4----4----2-----4---4---0--|
|-----------------------------|
|-----------------------------|
|-----------------------------|

16:36 - 17:25 SOLO (can't tab) + under construction

17:26 - 18:06 play 12 times
|---------------------------|
|---------------------------|
|------7-----7-----8-7-5----|
|----7-----7-----8-------6--|
|--5-----5-----6------------|
|---------------------------|

18:07 - 18:34 play 8 times
|---------------------------|
|---------------------------|
|------5-----5-----6-5-3----|
|----5-----5-----6-------4--|
|--3-----3-----4------------|
|---------------------------|

18:36 - 19:01 play 4 times
|---------------------------------------------------|
|---------------------------------------------------|
|------7-----7-----8-7-5-------7-----7-----8-7-5----| gtr.1
|----7-----7-----8-------6---7-----7-----8-------6--|
|--5-----5-----6-----------5-----5-----6------------|
|---------------------------------------------------|
| |
|---------------------------------------------------|
|---------------------------------------------------|
|--7-----------------5------------------------------| gtr.2
|--------------------------7------------------------|
|---------------------------------------------------|
|---------------------------------------------------|

19:02 - 20:14 (distorted guitar storms in and slowly fading out)
|---------|
|---------|
|---------| gtr.1
|--7---6--|
|--7---6--|
|--5---4--|

19:16 - 20:14 (the another guitar fading out with this)
|-----------------------|
|--5---6---3---5--------|
|----------------5s4s2--| gtr.2
|-----------------------|
|-----------------------|
|-----------------------|

Check Out Death Warp, With More Transcriptions On It:
Http://tiger.towson.edu/~dalvis1

Log In to leave a comment

After registration we will return you to the same place
Comments
face-with-monocle
If you wait a bit, some comments may appear here...

Shhh...