Loading...
Operation Ivy logo

Take Warning Operation Ivy

  • 0
  • Share
  • Transposing
    0
  • Font Size
I tried the other one but this sounds better plus i know the ska part.
=slide down ( BIG PART OF THIS SONG!)
E|--------------
B|--------------
G|-4-8-68-68-- 2x
D|-4-8-68-68--
A|-2-6-48-46--
E|--------------

(bar chords)
E|-2-6-46----------
B|-3-7-57----------
G|-4-8-68----------
D|-4-8-68----------
A|-2-6-46----------
E|------------------

Rest of song until end.then repeat first part.it's a pretty easy song once you get the bar chords down.
Good luck!have fun!if u know any good tabs email them to me please! especially Op.
Ivy and Rancid. my email is [email protected]

Log In to leave a comment

After registration we will return you to the same place
Comments
face-with-monocle
If you wait a bit, some comments may appear here...

Shhh...

Versions

Most Popular
You Might Like