Loading...
Offspring logo

All I Want Offspring

  • 0
  • Share
  • Transposing
    0
  • Font Size
Intro:
E---------------------------------------------------------------|
B---------------------------------------------------------------|
G-11-11-9-11-11-11--7-7-7--9-9-9---11-11-9-11-11-11--7-7-7--9-9-|
D-11-11-9-11-11-11--7-7-7--9-9-9---11-11-9-11-11-11--7-7-7--7-9-|
A--9--9-7--9--9--9--5-5-5--7-7-7----9--9-7--9--9--9--5-5-5----7-|
E---------------------------------------------------------------|

Verse: x2
E----------------------------------------------------------|
B----------------------------------------------------------|
G-----------------------------------------------7-7-7--9-9-|
D-4-4-4--2-4-4--4-------------4-4-4--2-4-4---4--7-7-7--7-9-|
A-4-4-4--2-4-4--4-5-5--5-7-7--4-4-4--2-4-4---4--5-5-5----7-|
E-2-2-2--0-2-2--2-------------2-2-2--0-2-2---2-------------|
____palm-mute__/ ___palm-mute___/

Chorus: x6
E-----------------|
B---*---*-------*-|
G-11---7----*--9--|
D-11---7---7---9--|
A--9---5---7---7--|
E----------5------|

Затем опять Intr, Verse и Chorus

Bridge:
E-------------------------------------------------x
B---------------------------------------*-------*-x
G-7-7-7-9---11-11-11-9----7-7-7-9-9--7-7-----6-6--x
D-7-7-7-9---11-11-11-9----7-7-7-9-9--7-7-----6-6--x
A-5-5-5-7----9--9--9-7----5-5-5-7-7--5-5-----4-4--x
E-------------------------------------------------x

Снова CHORUS

Outro: x6
E---------------------------------|
B-(--*---*)-------*---------------|
G-(11---7-)----*-9--9-9--9-9-9-11-|
D-(11---7-)---7--9--9-9--9-9-9-11-|
A-(-9---5-)---7--7--7-7--7-7-7--9-|
E-------------5-------------------|

Log In to leave a comment

After registration we will return you to the same place
Comments
face-with-monocle
If you wait a bit, some comments may appear here...

Shhh...