Of Monsters And Men logo

Little Talks solo Of Monsters And Men

  • 2
  • Share
  • Transposing
    0
  • Font Size
Of Monsters And Men – Little Talks solo
Tabbed by: robharrold142
Email: [email protected]

1st & 2nd Trumpet part (Intro & 0:57)

E | ---------------------4---- | ---------4-------------------------|
B | ----6-6-6---6----6-------- | ---6-6-6--6-4-2-1-2-4--------------|
G | -6--------6---6----------- | -----------------------------------|
D | -------------------------- | -----------------------------------|
A | -------------------------- | -----------------------------------|
E | -------------------------- | ----------------------------------|

E | ---------------------4---- | ---------4-------------------------|
B | ----6-6-6---6----6-------- | ---6-6-6--6-4-2-1------------------|
G | -6--------6---6----------- | -------------------3---------------|
D | -------------------------- | -----------------------------------|
A | -------------------------- | -----------------------------------|
E | -------------------------- | ----------------------------------|

3rd Trumpet Part (1:53)

E | ---------------------4---- | -----------------------------------|
B | ----6-6-6---6----6-------- | -6-6-6-4-2-------------------------|
G | -6--------6---6----------- | -----------------------------------|
D | -------------------------- | -----------------------------------|
A | -------------------------- | -----------------------------------|
E | -------------------------- | ----------------------------------|

E|----1-4-6-6-4p1-4--4-4-------------------------4h6----4------------------------|
B|--4--------------------4-4-4--6-6-4-2-2-----4h6---------6-6-6--6-4-2-----------|
G|------------------------------------------3h6-----------------6----------------|
D|---------------------------------------3h6-------------------------------------|
A|-------------------------------------------------------------------------------|
E|-------------------------------------------------------------------------------|

E|---1-4-6-6-4p1-4--4-4------------------------------------------------------|
B|-4---------------------4-4-4--6-6-4-2-2-1-2-1------------------------------|
G|-----------------------------------------------3---------------------------|
D|---------------------------------------------------------------------------|
A|---------------------------------------------------------------------------|
E|---------------------------------------------------------------------------|

Log In to leave a comment

After registration we will return you to the same place
Comments
face-with-monocle
If you wait a bit, some comments may appear here...

Shhh...