Nugent Ted logo

Stranglehold Nugent Ted

  • 0
  • Share
  • Font Size
    15
Nugent Ted – Stranglehold
Artist:Ted Nugent
Song:Stranglehold
Album:Dazed and Confused
Tabbed By:Gary Hricewich
E-mail:snapper2001@msn.com

 Intro (3x)            Rest(1x)
G--------------|-----|----------|-----|
D--------------|-----|----------|-----|
A--------------|-----|----------|-----|
E--------------|-3-5-|----------|-3-5-|

 Main Line+ Verse
G--------------------------|-----------------------|
D-----7---7---7---7--------|---7---7---7---7-------|
A---0---0---0---0---0-3-5--|-0---0---0---0---0-----|
E--------------------------|-------------------3-5-|

  After 2nd Verse                             (2x)
G-------------------------|-----------------------|
D-------------------------|-----------------------|
A---------------------0-2-|-----------------------|
E---0-2-0-2-0-2-0-2-0-----|-0-2-0-2-0-2-0-2-0-2-2-|

 Bridge
G-------------------------------------|
D-------------------------------------|
A-------------------------------------|
E---5--5-5-5-5--5-5-5-5--5-5-5--3-3-3-|

 Alternate Line Towards End Of Song
G-------------------------|-----------------12-12-12-12-14-|
D-----7---7---7---7-------|---7---7---7/-14----------------|
A---0---0---0---0---0-3-5-|-0---0---0----------------------|
E-------------------------|--------------------------------|

 Riff Before Outro                  Outro------------------------------  End
G---14-14-14-14-14-14-14-14-12-----|----|---|---|---|---|---|---|---|---|---|
D------------------------------14-|----|---|---|---|---|---|---|---|---|---|
A----------------------------------|----|---|---|---|---|---|---|---|---|---|
E----------------------------------|-5-|-3-|-3-|-3-|-3-|-5-|-5-|-5-|-5-|-5|

Log In to leave a comment

After registration we will return you to the same place
Comments
face-with-monocle
If you wait a bit, some comments may appear here...

Shhh...