Loading...
Ногу Свело logo

Семь планет Ногу Свело

  • 0
  • Share
  • Transposing
    0
  • Font Size
Intro:
E|---------------------------------
B|---------------------------------
G|---------------------------------
D|-----0-------0-------0-------0---
A|---2---2---2---2---2---2---2---2-
E|-3-------3-------3-------3-------

1:
----------------------------------------------------------------------------------
----------------------------------------------------------------------------------
----------------------4-------4-----------------------1-------1-------2-------2---
-----0-------0------4---4---4---4-----2-------2-----2---2---2---2---2---2---2---2-
---2---2---2---2--2-------2---------2---2---2---2-----------------0-------0-------
-3-------3------------------------0-------0-------0-------0-----------------------
Мы будем вместе Пускай уже ле-

---------------------------------------------------------------------------------
---------------------3-------3-------3---------------3-------3-------------------
-----2-------------2---2---2---2---2---------------2---2---2---2-----0-------0---
---2-------------0-------0-------0---------------0-------0---------2---2---2---2-
-0-----3-2-----------------------------3-2---------------------------------------
-----------0-2-3---------------------------0-2-3-----------------0-------0-------
тят свободные тела лишенные тепла вниз

----------------------------------------------------------------------------------
----------------------------------------------------------------------------------
----------------------4-------4-----------------------1-------1-------2-------2---
-----0-------0------4---4---4---4-----2-------2-----2---2---2---2---2---2---2---2-
---2---2---2---2--2-------2---------2---2---2---2-----------------0-------0-------
-3-------3------------------------0-------0-------0-------0-----------------------
Там, словно в тесте, Теперь они лежат -

---------------------------------------------------------------------------------
---------------------3-------3-------3---------------3-------3-------------------
-----2-------------2---2---2---2---2---------------2---2---2---2-----0-------0---
---2-------------0-------0-------0---------------0-------0---------2---2---2---2-
-0-----3-2-----------------------------3-2---------------------------------------
-----------0-2-3---------------------------0-2-3-----------------0-------0-------
Дешевые корма, Полезные весьма. Гордись!

Припев:
G Em Bm D
Семь планет стоят
G Em D
И Землю ждут
G Em Bm D
Им пора лететь назад
G Em D
Их зовут

2:
----------------------------------------------------------------------------------
----------------------------------------------------------------------------------
----------------------4-------4-----------------------1-------1-------2-------2---
-----0-------0------4---4---4---4-----2-------2-----2---2---2---2---2---2---2---2-
---2---2---2---2--2-------2---------2---2---2---2-----------------0-------0-------
-3-------3------------------------0-------0-------0-------0-----------------------
Я где-то рядом. Уже почти привык

---------------------------------------------------------------------------------
---------------------3-------3-------3---------------3-------3-------------------
-----2-------------2---2---2---2---2---------------2---2---2---2-----0-------0---
---2-------------0-------0-------0---------------0-------0---------2---2---2---2-
-0-----3-2-----------------------------3-2---------------------------------------
-----------0-2-3---------------------------0-2-3-----------------0-------0-------
К отсутстивию следов, к дыханию садов... В грозу.

----------------------------------------------------------------------------------
----------------------------------------------------------------------------------
----------------------4-------4-----------------------1-------1-------2-------2---
-----0-------0------4---4---4---4-----2-------2-----2---2---2---2---2---2---2---2-
---2---2---2---2--2-------2---------2---2---2---2-----------------0-------0-------
-3-------3------------------------0-------0-------0-------0-----------------------
Нас к водопадам доставит ветер вмиг,

---------------------------------------------------------------------------------
---------------------3-------3-------3---------------3-------3-------------------
-----2-------------2---2---2---2---2---------------2---2---2---2-----0-------0---
---2-------------0-------0-------0---------------0-------0---------2---2---2---2-
-0-----3-2-----------------------------3-2---------------------------------------
-----------0-2-3---------------------------0-2-3-----------------0-------0-------
Ведь мы легки как газ, невидимы для глаз... Внизу.

Припев:
G Em Bm D
Семь планет стоят
G Em D
И Землю ждут
G Em Bm D
Им пора лететь назад
G Em D
Их зовут

3:
----------------------------------------------------------------------------------
----------------------------------------------------------------------------------
----------------------4-------4-----------------------1-------1-------2-------2---
-----0-------0------4---4---4---4-----2-------2-----2---2---2---2---2---2---2---2-
---2---2---2---2--2-------2---------2---2---2---2-----------------0-------0-------
-3-------3------------------------0-------0-------0-------0-----------------------
Мы будем вместе Пускай себе летят

---------------------------------------------------------------------------------
---------------------3-------3-------3---------------3-------3-------------------
-----2-------------2---2---2---2---2---------------2---2---2---2-----0-------0---
---2-------------0-------0-------0---------------0-------0---------2---2---2---2-
-0-----3-2-----------------------------3-2---------------------------------------
-----------0-2-3---------------------------0-2-3-----------------0-------0-------
Свободные тела, Лишенные тепла вниз.

Log In to leave a comment

After registration we will return you to the same place
Comments
face-with-monocle
If you wait a bit, some comments may appear here...

Shhh...