Loading...
Nightwish logo

Nemo Nightwish

  • 0
  • Share
  • Transposing
    0
  • Font Size
Drop D Tuning, down 1 step:
(low to high) [CGCFAD]

Intro:
Rhy.Fill 1: [piano arr. guitar]
|-24-24-22-24------24-24-22-24----|-22-22-24--------------------|
|--------------24--------------20-|-----------24-22-20-19----17-|
|---------------------------------|-----------------------19----|
|---------------------------------|-----------------------------|
|---------------------------------|-----------------------------|
|---------------------------------|-----------------------------|

Rhy.Fig 1: Gtr.1 [dist.]
D5 F5 C5
|---------------------------------|---------------------------------|
|---------------------------------|---------------------------------|
|---------------------------------|---------------------------------|
|-2-2-2-2-2-2-2-2-2-2-2-2-2-2-2-2-|-5-5-5-5-5-5-5-5-0-0-0-0-0-0-0-0-|
|-2-2-2-2-2-2-2-2-2-2-2-2-2-2-2-2-|-5-5-5-5-5-5-5-5-0-0-0-0-0-0-0-0-|
|-2-2-2-2-2-2-2-2-2-2-2-2-2-2-2-2-|-5-5-5-5-5-5-5-5-0-0-0-0-0-0-0-0-|

Rhy.Fig 2: Gtr.2 [dist.]
D5 F5 C5
|---------------------------------|---------------------------------|
|---------------------------------|---------------------------------|
|---------------------------------|-----------------7-7-7-7-7-7-7-7-|
|-2-2-2-2-2-2-2-2-2-2-2-2-2-2-2-2-|-5-5-5-5-5-5-5-5-7-7-7-7-7-7-7-7-|
|-2-2-2-2-2-2-2-2-2-2-2-2-2-2-2-2-|-5-5-5-5-5-5-5-5-5-5-5-5-5-5-5-5-|
|-2-2-2-2-2-2-2-2-2-2-2-2-2-2-2-2-|-5-5-5-5-5-5-5-5-----------------|

Verse:
Gtrs.1&2: [bass arr. guitar]
D5 D5
|---------------------------------|---------------------------------|
|---------------------------------|---------------------------------|
|---------------------------------|---------------------------------|
|---------------------------------|---------------------------------|
|---------------------------------|---------------------------------|
|-2-2-2-2-2-2-2-2-2-2-2-2-2-2-2-2-|-2-2-2-2-2-2-2-2-2-2-2-2-2-2-2-2-|
This is me____ for forever one__ of the lost_ ones

D5 E5 G5 C5
|---------------------------------|---------------------------------|
|---------------------------------|---------------------------------|
|---------------------------------|---------------------------------|
|---------------------------------|---------------------------------|
|---------------------------------|---------------------------------|
|-2-2-2-2-2-2-2-2-4-4-4-4-4-4-4-4-|-7-7-7-7-7-7-7-7-0-0-0-0-0-0-0-0-|
The one without a name without an honest_ heart_ a compass___

D5 D5
|---------------------------------|---------------------------------|
|---------------------------------|---------------------------------|
|---------------------------------|---------------------------------|
|---------------------------------|---------------------------------|
|---------------------------------|---------------------------------|
|-2-2-2-2-2-2-2-2-2-2-2-2-2-2-2-2-|-2-2-2-2-2-2-2-2-2-2-2-2-2-2-2-2-|
This is me____ for forever one__ without_ a name___

G5 D5 G5 C5
|---------------------------------|---------------------------------|
|---------------------------------|---------------------------------|
|---------------------------------|---------------------------------|
|---------------------------------|---------------------------------|
|---------------------------------|---------------------------------|
|-7-7-7-7-7-7-7-7-2-2-2-2-2-2-2-2-|-7-7-7-7-7-7-7-7-0-0-0-0-0-0-0-0-|
This life's the last endeavour_ to find the missing_ lifeline__

Chorus:
Gtr.1 Rhy.Fig 1 [2 times]
Gtr.2 Rhy.Fig 2 [2 times]

D5 F5 C5
|---------------------------------|---------------------------------|
|---------------------------------|---------------------------------|
|---------------------------------|---------------------------------|
|---------------------------------|---------------------------------|
|---------------------------------|---------------------------------|
|---------------------------------|---------------------------------|
Oh how I wish for soothing rain all I wish is to dream again_

D5 F5 C5
|---------------------------------|---------------------------------|
|---------------------------------|---------------------------------|
|---------------------------------|---------------------------------|
|---------------------------------|---------------------------------|
|---------------------------------|---------------------------------|
|---------------------------------|---------------------------------|
My loving heart lost in the dark for hope i'd give my everything

Verse:
Rhy.Fill 2: [piano arr. guitar]
|----------------------19------------------------|
|-------------17-19-20----20-19-17----20----19---|
|-------16-19---------------------19----19----19-|
|-17-19------------------------------------------|
|------------------------------------------------|
|------------------------------------------------|
___ My flower___ withered between_ the

|----------------------19-------------------------|
|-------------17-19-20----20-19-17----22----20----|
|-------16-19----------------------19----19----19-|
|-17-19-------------------------------------------|
|-------------------------------------------------|
|-------------------------------------------------|
Pages__ two and__ three______

Gtr.1 Rhy Fig 3:
D5 E5 G5 C5
P.M. - - - - - - - - - - - - - - - - - - - - - - - - - - - - - - |
|---------------------------------|---------------------------------|
|---------------------------------|---------------------------------|
|---------------------------------|---------------------------------|
|-2-2-2-2-2-2-2-2-4-4-4-4-4-4-4-4-|-7-7-7-7-7-7-7-7-0-0-0-0-0-0-0-0-|
|-2-2-2-2-2-2-2-2-4-4-4-4-4-4-4-4-|-7-7-7-7-7-7-7-7-0-0-0-0-0-0-0-0-|
|-2-2-2-2-2-2-2-2-4-4-4-4-4-4-4-4-|-7-7-7-7-7-7-7-7-0-0-0-0-0-0-0-0-|

Gtr.2 Rhy.Fig 4:
D5 E5 G5 C5
P.M. - - - - - - - - - - - - - - - - - - - - - - - - - - - - - - |
|---------------------------------|---------------------------------|
|---------------------------------|---------------------------------|
|---------------------------------|-----------------7-7-7-7-7-7-7-7-|
|-2-2-2-2-2-2-2-2-4-4-4-4-4-4-4-4-|-7-7-7-7-7-7-7-7-7-7-7-7-7-7-7-7-|
|-2-2-2-2-2-2-2-2-4-4-4-4-4-4-4-4-|-7-7-7-7-7-7-7-7-5-5-5-5-5-5-5-5-|
|-2-2-2-2-2-2-2-2-4-4-4-4-4-4-4-4-|-7-7-7-7-7-7-7-7-----------------|
__The_ once and forever__ bloom gone__ with_ my sins___

Gtrs.1&2 Rhy.Fig 5:
F5 F5
P.M. - - - - - - - - - - - - - - - - - - - - - - - - - - - - - - |
|---------------------------------|---------------------------------|
|---------------------------------|---------------------------------|
|---------------------------------|---------------------------------|
|-5-5-5-5-5-5-5-5-5-5-5-5-5-5-5-5-|-5-5-5-5-5-5-5-5-5-5-5-5-5-5-5-5-|
|-5-5-5-5-5-5-5-5-5-5-5-5-5-5-5-5-|-5-5-5-5-5-5-5-5-5-5-5-5-5-5-5-5-|
|-5-5-5-5-5-5-5-5-5-5-5-5-5-5-5-5-|-5-5-5-5-5-5-5-5-5-5-5-5-5-5-5-5-|
Walk the dark path sleep with angels_ call the past for help____

A#5 F5 A#5 D#5
P.M.- - - - - - - - - - - - - - - - - - -|
|---------------------------------|---------------------------------|
|---------------------------------|---------------------------------|
|-5-5-5-5-5-5-5-5-----------------|-5-5-5-5-5-5-5-5-----------------|
|-5-5-5-5-5-5-5-5-5-5-5-5-5-5-5-5-|-5-5-5-5-5-5-5-5-3-3-3-3-3-3-3-3-|
|-3-3-3-3-3-3-3-3-5-5-5-5-5-5-5-5-|-3-3-3-3-3-3-3-3-3-3-3-3-3-3-3-3-|
|-----------------5-5-5-5-5-5-5-5-|-----------------3-3-3-3-3-3-3-3-|

Chorus:
Gtr.1 Rhy.Fig 1 [2 times]
Gtr.2 Rhy.Fig 2 [2 times]

D5 F5 C5
|---------------------------------|---------------------------------|
|---------------------------------|---------------------------------|
|---------------------------------|---------------------------------|
|---------------------------------|---------------------------------|
|---------------------------------|---------------------------------|
|---------------------------------|---------------------------------|
Oh how I wish for soothing rain all I wish is to dream again_

D5 F5 C5
|---------------------------------|---------------------------------|
|---------------------------------|---------------------------------|
|---------------------------------|---------------------------------|
|---------------------------------|---------------------------------|
|---------------------------------|---------------------------------|
|---------------------------------|---------------------------------|
My loving heart lost in the dark for hope i'd give my everything

Gtrs.1&2:
D5 C5
let ring - - - - - - - - - - - - - - - - - - - - - - - - - - - - |
|---------------------------------|---------------------------------|
|---------------------------------|---------------------------------|
|---------------------------------|---------------------------------|
|-2-------------------------------|-0-------------------------------|
|-2-------------------------------|-0-------------------------------|
|-2-------------------------------|-0-------------------------------|
Oh how I wish for soothing rain oh how I wish is to dream again_

D5
let ring - - - - - - - - - - - - - - - - - - - - - - - - - - - - |
|---------------------------------|---------------------------------|
|---------------------------------|---------------------------------|
|---------------------------------|---------------------------------|
|-2-------------------------------|---------------------------------|
|-2-------------------------------|---------------------------------|
|-2-------------------------------|---------------------------------|
Once and for all and all for once Nemo, my name forever more___

Gtr.1 Rhy.Fig 6:
D5 D5
|--------------------------------|--------------------------------|
|--------------------------------|--------------------------------|
|--------------------------------|--------------------------------|
|-2------------------------------|-2------------------------------|
|-2------------------------------|-2------------------------------|
|-2------------------------------|-2------------------------------|

Gtr.2 Rhy.Fig 7
D5 D5
|--------------------------------|--------------------------------|
|--------------------------------|--------------------------------|
|-9------------------------------|-9------------------------------|
|-9------------------------------|-9------------------------------|
|-7------------------------------|-7------------------------------|
|--------------------------------|--------------------------------|

Gtrs.1&2 Rhy.Fig 8
D5 D5
P.M - - - - - - - - - - - - - - - -|
|---------------------------------|---------------------------------|
|---------------------------------|---------------------------------|
|---------------------------------|---------------------------------|
|-5-7-5-4-2-2-2-2-2-2-2-2-2-2-2-2-|-5-7-5-4-2-2-2-2-2-2-2-2-2-2-2-2-|
|-5-7-5-4-2-2-2-2-2-2-2-2-2-2-2-2-|-5-7-5-4-2-2-2-2-2-2-2-2-2-2-2-2-|
|-5-7-5-4-2-2-2-2-2-2-2-2-2-2-2-2-|-5-7-5-4-2-2-2-2-2-2-2-2-2-2-2-2-|

D5 D5 F5 C5
P.M - - - - - - - - - - - - - - -
|---------------------------------|---------------------------------|
|---------------------------------|---------------------------------|
|---------------------------------|---------------------------------|
|-2-2-2-2-2-2-2-2-2-2-2-2-5-7-5-4-|-2-2-2-2-2-2-2-2-2-2-2-2---5---0-|
|-2-2-2-2-2-2-2-2-2-2-2-2-5-7-5-4-|-2-2-2-2-2-2-2-2-2-2-2-2---5---0-|
|-2-2-2-2-2-2-2-2-2-2-2-2-5-7-5-4-|-2-2-2-2-2-2-2-2-2-2-2-2---5---0-|

Gtr.1 Rhy.Fig 1 [2 times]
Gtr.2 Solo
D5 F5 C5
|---------------------------------|-----------------------------15---------|
|-17--20--------------------------|---15------15----17-17-15-15-x--17-15---|
|-19b----19b-~-------------12-14--|-16--12-14----16-16-16-16-16-16-16-16---|
|---------------------------------|----------------------------------------|
|---------------------------------|----------------------------------------|
|---------------------------------|----------------------------------------|

D5 F5 C5
|---------------------------------------------------|---------------12-----|
|-12------15-12-14-12-------------------------------|-----------------15b~-|
|-14b-b14-------------15-12-14-12-14-12-------------|-12---14-12-14b-------|
|---------------------------------------14-12-12b-~-|---14~----------------|
|---------------------------------------------------|----------------------|
|---------------------------------------------------|----------------------|

Interlude:
Gtrs.1&2
F5 F5
P.M.- - - - - - - - - - - - - - - - - - - - - - -|
|---------------------------------|---------------------------------|
|---------------------------------|---------------------------------|
|---------------------------------|---------------------------------|
|-5-5-5-5-5-5-5-5-5-5-5-5-5-5-5-5-|-5-5-5-5-5-5-5-5-5-5-5-5-5-5-5-5-|
|-5-5-5-5-5-5-5-5-5-5-5-5-5-5-5-5-|-5-5-5-5-5-5-5-5-5-5-5-5-5-5-5-5-|
|-5-5-5-5-5-5-5-5-5-5-5-5-5-5-5-5-|-5-5-5-5-5-5-5-5-5-5-5-5-5-5-5-5-|
Ne___ mo____ sai__ling__ heart______________________

F5 F5
P.M.- - - - - - - - - - - - - - - -| C#5 D#5
|---------------------------------|---------------------------------|
|---------------------------------|---------------------------------|
|---------------------------------|---------------------------------|
|-5-5-5-5-5-5-5-5-5-5-5-5-5-5-5-5-|-5-5-5-5-5-5-5-5-5----1----3-----|
|-5-5-5-5-5-5-5-5-5-5-5-5-5-5-5-5-|-5-5-5-5-5-5-5-5-5----1----3-----|
|-5-5-5-5-5-5-5-5-5-5-5-5-5-5-5-5-|-5-5-5-5-5-5-5-5-5----1----3-----|
Ne___ mo____ let____ it__ go_______________

Chorus:
Rhy.Fig 9
Gtrs.1&2
F5 D#5
|---------------------------------|---------------------------------|
|---------------------------------|---------------------------------|
|---------------------------------|---------------------------------|
|-5-5-5-5-5-5-5-5-5-5-5-5-5-5-5-5-|-3-3-3-3-3-3-3-3-3-3-3-3-3-3-3-3-|
|-5-5-5-5-5-5-5-5-5-5-5-5-5-5-5-5-|-3-3-3-3-3-3-3-3-3-3-3-3-3-3-3-3-|
|-5-5-5-5-5-5-5-5-5-5-5-5-5-5-5-5-|-3-3-3-3-3-3-3-3-3-3-3-3-3-3-3-3-|
Oh how I wish for soothing rain all I wish is to dream again_

F5 G#5 D#5
|---------------------------------|---------------------------------|
|---------------------------------|---------------------------------|
|---------------------------------|---------------------------------|
|-5-5-5-5-5-5-5-5-5-5-5-5-5-5-5-5-|-8-8-8-8-8-8-8-8-3-3-3-3-3-3-3-3-|
|-5-5-5-5-5-5-5-5-5-5-5-5-5-5-5-5-|-8-8-8-8-8-8-8-8-3-3-3-3-3-3-3-3-|
|-5-5-5-5-5-5-5-5-5-5-5-5-5-5-5-5-|-8-8-8-8-8-8-8-8-3-3-3-3-3-3-3-3-|
My loving heart lost in the dark for hope i'd give my everything

F5 D#5
|---------------------------------|---------------------------------|
|---------------------------------|---------------------------------|
|---------------------------------|---------------------------------|
|-5-5-5-5-5-5-5-5-5-5-5-5-5-5-5-5-|-3-3-3-3-3-3-3-3-3-3-3-3-3-3-3-3-|
|-5-5-5-5-5-5-5-5-5-5-5-5-5-5-5-5-|-3-3-3-3-3-3-3-3-3-3-3-3-3-3-3-3-|
|-5-5-5-5-5-5-5-5-5-5-5-5-5-5-5-5-|-3-3-3-3-3-3-3-3-3-3-3-3-3-3-3-3-|
Oh how I wish for soothing rain oh how I wish is to dream again_

F5 G#5 D#5
|---------------------------------|---------------------------------|
|---------------------------------|---------------------------------|
|---------------------------------|---------------------------------|
|-5-5-5-5-5-5-5-5-5-5-5-5-5-5-5-5-|-8-8-8-8-8-8-8-8-3-3-3-3-3-3-3-3-|
|-5-5-5-5-5-5-5-5-5-5-5-5-5-5-5-5-|-8-8-8-8-8-8-8-8-3-3-3-3-3-3-3-3-|
|-5-5-5-5-5-5-5-5-5-5-5-5-5-5-5-5-|-8-8-8-8-8-8-8-8-3-3-3-3-3-3-3-3-|
Once and for all and all for once Nemo, my name forever more___

F5 D#5
|---------------------------------|---------------------------------|
|---------------------------------|---------------------------------|
|---------------------------------|---------------------------------|
|-5-5-5-5-5-5-5-5-5-5-5-5-5-5-5-5-|-3-3-3-3-3-3-3-3-3-3-3-3-3-3-3-3-|
|-5-5-5-5-5-5-5-5-5-5-5-5-5-5-5-5-|-3-3-3-3-3-3-3-3-3-3-3-3-3-3-3-3-|
|-5-5-5-5-5-5-5-5-5-5-5-5-5-5-5-5-|-3-3-3-3-3-3-3-3-3-3-3-3-3-3-3-3-|
name forever more___

F5 G#5 D#5
|---------------------------------|---------------------------------|
|---------------------------------|---------------------------------|
|---------------------------------|---------------------------------|
|-5-5-5-5-5-5-5-5-5-5-5-5-5-5-5-5-|-8-8-8-8-8-8-8-8-3-3-3-3-3-3-3-3-|
|-5-5-5-5-5-5-5-5-5-5-5-5-5-5-5-5-|-8-8-8-8-8-8-8-8-3-3-3-3-3-3-3-3-|
|-5-5-5-5-5-5-5-5-5-5-5-5-5-5-5-5-|-8-8-8-8-8-8-8-8-3-3-3-3-3-3-3-3-|

Log In to leave a comment

After registration we will return you to the same place
Comments
face-with-monocle
If you wait a bit, some comments may appear here...

Shhh...