Nightwish logo

Kinslayer Nightwish

  • 0
  • Share
  • Transposing
    0
  • Font Size
Nightwish – Kinslayer
Tero Posio

Bass

[G---------------------------------------------------------------
D------------------------------0--------------------------------
A---------------0---------2-----------------------------0-------
E--0-0---------------------------------0-0-0--------------------

-------0-----------------------------------------0-------------
--2-------------------------------0---------2------------------
-----------3--2--0---0-0---------------------------------0-0-0-

--------------------------0---------------------------------------------
-----------0---------2------------------2-2-2-2-2-2-2-2-2-2-2-2-2-2-2-2-
------------------------------3--2--0-----------------------------------

---------------------------------------------------------------

--2-2-2-2-2-2-2-2-0------------2-2-2-2-2-2-2-2-2-2-2-2-2-2-2-2-
-----------------------3--2------------------------------------

---------------------------------------------------------------

--2-2-2-2-2-2-2-2-0--------------------------------------------
-----------------------3--2----4-4-4-4-4-4-4-4-4-4-4-4-4-4-4-4-

------------------4--------------------------------------------
-----------------------7--6------------------------------------
--4-4-4-4-4-4-4-4--------------4-4-4-4-4-4-4-4-4-4-4-4-4-4-4-4-

------------------4--------------------------------------------
-----------------------7--6----4-------4-------4-------7-6-4-3-
--4-4-4-4-4-4-4-4----------------5-4-5---5-4-5---5-4-5---------

--------------------------------------------------------------------

--4-------4-------4-------------3---4-------4-------4-------7-6-4-3-
----5-4-5---5-4-5---5-4-5-3-4-5-------5-4-5---5-4-5---5-4-5---------

------------------------------------4-------4-------4-------7-6-4-3-
--4-------4-------4-------4-5-6-7-----5-4-5---5-4-5---5-4-5---------
----5-4-5---5-4-5---5-4-5-------------------------------------------

--4-------4-------4-------------3---4-------4-------4-------7-6-4-3-
----5-4-5---5-4-5---5-4-5-3-4-5-------5-4-5---5-4-5---5-4-5---------
--------------------------------------------------------------------

--4-------4-------4-------8-7-6-5-------------------------------
----5-4-5---5-4-5---5-4-5-----------4-4-4--4-4-4--4-4-4--4-4-4--
----------------------------------------------------------------

----------------------------------------------------------

--4-4-4--4-4-4--4-4-4---------4-4-4--4-4-4--4-4-4--4-4-4--
-----------------------4----------------------------------

----------------------------------------------------------

--4-4-4--4-4-4--4-4-4-------------------------------------
-----------------------3------2-2-2--2-2-2--2-2-2--2-2-2--

--------------------------------------------------------

---------------------2----------------------------------
--2-2-2--2-2-2--0-----------2-2-2--2-2-2--2-2-2--2-2-2--

-----------------------------------------------------------------

-----------------------8-7-6-5---2-2-2-2-2-2-2-2-2-2-2-2-2-2-2-2-
--2-2-2--2-2-2--2-2-2--------------------------------------------

---------------------------------------------------------------

--2-2-2-2-2-2-2-2-0------------2-2-2-2-2-2-2-2-2-2-2-2-2-2-2-2-
-----------------------3--2------------------------------------

----------------------------------------------------------

--2-2-2-2-2-2-2-2-0------------4-4--4-4--4-4--4-4--4-4--4-
-----------------------3--2-------------------------------

--------------------------0----2-2--2-2--2-2--2-2--2-2-2-2-
--4--4-4--4-4--4-4-4--4-4----------------------------------
-----------------------------------------------------------

--0-0--0-0--0-0--2-2--2-2-2-2-------------------------------
--------------------------------2-2--2-2--2-2--2-2--2-2-2-2-
------------------------------------------------------------
------------------------------------------------------------

--0-0--0-0--0-0---------------2-2--2-2--2-2--2-2--2-2-2-2-
-----------------3--3--3--3-------------------------------
----------------------------------------------------------

--0-0--0-0--0-0--2-2--2-2-2-2-------------------------------
--------------------------------2-2--2-2--2-2--2-2--2-2-2-2-
------------------------------------------------------------
------------------------------------------------------------

--0-0--0-0--0-0-------------------------------------------------------
-----------------2--2--2--2---7------------5--5----7---------------5--
----------------------------------------------------------------5-----

----------------------------------------------------------------------------

--7------------5--5----7--------------6--6----7-7-7-7-7-7-7-7-7-7-7-7-5--5--
--------------------------------5--5----------------------------------------

----------------------------------------------------------------

--7-7-7-7-7-7-7-7-7-7-7-7-5--5----7-7-7-7-7-7-7-7-7-7-7-7-5--5--
----------------------------------------------------------------

----------------------------------------------------------------

--7-7-7-7-7-7-7-7-------6--6------------------------------------
------------------5--5----------4-4-4-4-4-4-4-4-4-4-4-4-4-4-4-4-

------------------4-----------------------------------------------
-----------------------7--6---------------------------------------
--4-4-4-4-4-4-4-4--------------4----------------------------------

----------------------------------------------------4----------
---------------------------------------------------------7--6--
--4-4-4-4-4-4-4-4-4-4-4-4-4-4-4-4---4-4-4-4-4-4-4-4------------

---------------------------------------------------------------------

---------------------------------------7-7-7-7-7-7-7-7-7-7-7-7-5--5--
--4------------------------------------------------------------------

----------------------------------------------------------------

--7-7-7-7-7-7-7-7-7-7-7-7----5----7-7-7-7-7-7-7-7-7-7-7-7-5--5--
--------------------------5-------------------------------------

------------------------------------------------------------------

--7-7-7-7-7-7-7-7-7-7-7-7----6------------------------------------
--------------------------5-------4-4-4-4-4-4-4-4-4-4-4-4-4-4-4-4-

------------------4-----------------------------------------------
-----------------------7--6---------------------------------------
--4-4-4-4-4-4-4-4--------------4----------------------------------

--------------------------------2-2--2-2--2-2--4-4--4-4-4-4-
--4-4--4-4--4-4--4-4--4-4-4-4-------------------------------
------------------------------------------------------------

----------------------------------------------------------

--4-4--4-4--4-4--4-4--4-4-4-4---2-2--2-2--2-2--4--4--4--4-
----------------------------------------------------------

--------------------------------2-2--2-2--2-2--4--4--4--4-
--4-4--4-4--4-4--4-4--4-4-4-4-----------------------------
----------------------------------------------------------

----------------------------------------------------------

--4-4--4-4--4-4--4-4--4-4-4-4---2-2--2-2--2-2-------------
-----------------------------------------------4--4--4--4-

----------------------------------------------

--4-4-4-4-4--4-4-4-4-4--4-4-4-4-4--4-4-4-4-4--
----------------------------------------------

----------------------------------------

--4-4-4-4-4--4-4-4-4-4--4-4-4-4-4-------
-----------------------------------4----

----------------------------------------------

--4-4-4-4-4--4-4-4-4-4--4-4-4-4-4--4-4-4-4-4--
----------------------------------------------

----------------------------------------

--4-4-4-4-4--4-4-4-4-4--4-4-4-4-4-------
-----------------------------------3----

----------------------------------------------
----------------------------------------------

--2-2-2-2-2--2-2-2-2-2--2-2-2-2-2--2-2-2-2-2--

-----------------------------------------

--------------------------------------3--
--2-2-2-2-2--2-2-2-2-2--2-2-2-2-2--0-----

----------------------------------------------
----------------------------------------------

--2-2-2-2-2--2-2-2-2-2--2-2-2-2-2--2-2-2-2-2--

-----------------------------------3-2-1-0-------------------

--2-2-2-2-2--2-2-2-2-2--2-2-2-2-2----------------------------]

-

Guitar

[E---------------------------------------------------------------
B
G---------------2---------4----7------------------------2-------
D--2-2----------2---------4----7-------2-2-2------------2-------
A--2-2----------0---------2----5-------2-2-2------------0-------
E--0-0---------------------------------0-0-0--------------------

---------------------------------------------------------------

--4----7--------------------------2---------4----7-------------
--4----7---5--4--2---2-2----------2---------4----7-------2-2-2-
--2----5---5--4--2---2-2----------0---------2----5-------2-2-2-
-----------3--2--0---0-0---------------------------------0-0-0-

-------------------------------------------------------------------------

-----------2---------4----7----------------------------------------------
-----------2---------4----7---5--4--2------------------------------------
-----------0---------2----5---5--4--2---7-----7-----10---9---5---7---9---
------------------------------3--2--0-----7-7---7-7----7---7---7---7---7-

------------------------------------------------------------------------
------------------------------------------------------------------------

----------------9--------------9---9------------------------------------
--10-----10--------12--10-9-10---9-----7-----7-----10---9---5---7---9---
-----7-7----7-7--------------------------7-7---7-7----7---7---7---7---7-

-----------------------------------------------------------------------
-----------------------------------------------------------------------

----------------9--------------9---9-----------------------------------
--10-----10--------12--10-9-10---9-----4-----4-----7---6---2---4---6---
-----7-7----7-7--------------------------4-4---4-4---4---4---4---4---4-

------------------------------------------------------------------
------------------------------------------------------------------

--------------6-----------6---6-----------------------------------
--7-----7--------9--7-6-7---6-----4-----4-----7---6---2---4---6---
----4-4---4-4-----------------------4-4---4-4---4---4---4---4---4-

------------------------------------------------------------------
------------------------------------------------------------------

--------------6-----------6---6-----------------------------------
--7-----7--------9--7-6-7---6-----4-------4-------4-------7-6-4-3-
----4-4---4-4-----------------------5-4-5---5-4-5---5-4-5---------

--------------------------------------------------------------------
--------------------------------------------------------------------
--------------------------------------------------------------------

--4-------4-------4-------------3---4-------4-------4-------7-6-4-3-
----5-4-5---5-4-5---5-4-5-3-4-5-------5-4-5---5-4-5---5-4-5---------

--------------------------------------------------------------------
--------------------------------------------------------------------

------------------------------------4-------4-------4-------7-6-4-3-
--4-------4-------4-------4-5-6-7-----5-4-5---5-4-5---5-4-5---------
----5-4-5---5-4-5---5-4-5-------------------------------------------

--------------------------------------------------------------------
--------------------------------------------------------------------

--4-------4-------4-------------3---4-------4-------4-------7-6-4-3-
----5-4-5---5-4-5---5-4-5-3-4-5-------5-4-5---5-4-5---5-4-5---------
--------------------------------------------------------------------

----------------------------------------------------------------

----------------------------------------6------6------6------6--
--4-------4-------4-------8-7-6-5-------6------6------6------6--
----5-4-5---5-4-5---5-4-5-----------4-4-4--4-4-4--4-4-4--4-4-4--
----------------------------------------------------------------

----------------------------------------------------------

------6------6------6-------------6------6------6------6--
------6------6------6--6----------6------6------6------6--
--4-4-4--4-4-4--4-4-4--6------4-4-4--4-4-4--4-4-4--4-4-4--
-----------------------4----------------------------------

----------------------------------------------------------

------6------6------6-------------------------------------
------6------6------6--5----------4------4------4------4--
--4-4-4--4-4-4--4-4-4--5----------4------4------4------4--
-----------------------3------2-2-2--2-2-2--2-2-2--2-2-2--

--------------------------------------------------------

---------------------4----------------------------------
------4------4--2----4----------4------4------4------4--
------4------4--2----2----------4------4------4------4--
--2-2-2--2-2-2--0-----------2-2-2--2-2-2--2-2-2--2-2-2--

------------------------------------------------------------------
------------------------------------------------------------------

------4------4------4---------------------------------------------
------4------4------4--8-7-6-5---7-----7-----10---9---5---7---9---
--2-2-2--2-2-2--2-2-2--------------7-7---7-7----7---7---7---7---7-

------------------------------------------------------------------------
------------------------------------------------------------------------

----------------9--------------9---9------------------------------------
--10-----10--------12--10-9-10---9-----7-----7-----10---9---5---7---9---
-----7-7----7-7--------------------------7-7---7-7----7---7---7---7---7-

------------------------------------------------------------------
------------------------------------------------------------------

----------------9--------------9---9---6-6--6-6--6-6--6-6--6-6--6-
--10-----10--------12--10-9-10---9-----4-4--4-4--4-4--4-4--4-4--4-
-----7-7----7-7---------------------------------------------------

-----------------------------------------------------------

-------------------6------7--------------------------------
--6--6-6--6-6--6-6-6--6-6-7----9-9--9-9--9-9--9-9--9-9-9-9-
--4--4-4--4-4--4-4-4--4-4-5----7-7--7-7--7-7--7-7--7-7-7-7-
-----------------------------------------------------------

------------------------------------------------------------------------
------------------------------------------------------------------------

--12-12--12-12--12-12--14-14--14-14-14-14---9-9--9-9--9-9--9-9--9-9-9-9-
--10-10--10-10--10-10--12-12--12-12-12-12---7-7--7-7--7-7--7-7--7-7-7-7-
------------------------------------------------------------------------

----------------------------------------------------------
----------------------------------------------------------

--7-7--7-7--7-7--5--5--5--5---9-9--9-9--9-9--9-9--9-9-9-9-
--5-5--5-5--5-5--3--3--3--3---7-7--7-7--7-7--7-7--7-7-7-7-
----------------------------------------------------------

------------------------------------------------------------------------
------------------------------------------------------------------------

--12-12--12-12--12-12--14-14--14-14-14-14---9-9--9-9--9-9--9-9--9-9-9-9-
--10-10--10-10--10-10--12-12--12-12-12-12---7-7--7-7--7-7--7-7--7-7-7-7-
------------------------------------------------------------------------

----------------------------------------------------------------------
----------------------------------------------------------------------

--7-7--7-7--7-7--4--4--4--4---9------------7--7----9---------------7--
--5-5--5-5--5-5--2--2--2--2---7------------5--5----7------------7--5--
----------------------------------------------------------------5-----

-----------------------------------------------------------------
-----------------------------------------------------------------

--9------------7--7----9--------------8--8----9------------7--7--
--7------------5--5----7--------7--7--6--6----7------------5--5--
--------------------------------5--5-----------------------------

-----------------------------------------------------------------
-----------------------------------------------------------------

--9---------------7----9------------7--7----9--------------8--8--
--7------------7--5----7------------5--5----7--------7--7--6--6--
---------------5-------------------------------------5--5--------

------------------------------------------------------------------
------------------------------------------------------------------

------------------------------------------------6-----------6---6-
--4-----4-----7---6---2---4---6-----7-----7--------9--7-6-7---6---
----4-4---4-4---4---4---4---4---4-----4-4---4-4-------------------

-----------------------------------------------------------------------
-----------------------------------------------------------------------

--6--------------------------------------------------------------------
--6------------------------------------4-----4-----7---6---2---4---6---
--4--------------------------------------4-4---4-4---4---4---4---4---4-

---------------------------------------------------------------------
---------------------------------------------------------------------

--------------6-----------6---6---6----------------------------------
--7-----7--------9--7-6-7---6-----6----------------------------------
----4-4---4-4---------------------4----------------------------------

----------------------------------------------------------------
----------------------------------------------------------------

--9-----------------------7--7----9--------------------------7--
--7-7-7-7-7-7-7-7-7-7-7-7-5--5----7-7-7-7-7-7-7-7-7-7-7-7-7--5--
----------------------------------------------------------5-----

----------------------------------------------------------------
----------------------------------------------------------------

--9-----------------------7--7----9--------------------------8--
--7-7-7-7-7-7-7-7-7-7-7-7-5--5----7-7-7-7-7-7-7-7-7-7-7-7-7--6--
----------------------------------------------------------5-----

------------------------------------------------------------------
------------------------------------------------------------------

------------------------------------------------6-----------6---6-
--4-----4-----7---6---2---4---6-----7-----7--------9--7-6-7---6---
----4-4---4-4---4---4---4---4---4-----4-4---4-4-------------------

-------------------------------------------------------------------
-------------------------------------------------------------------

--6------------------------------------6-6--6-6--6-6--6-6--6-6-6-6-
--6------------------------------------4-4--4-4--4-4--4-4--4-4-4-4-
--4----------------------------------------------------------------

------------------------------------------------------------------
------------------------------------------------------------------

--9-9--9-9--9-9--11-11--11-11-11-11---6-6--6-6--6-6--6-6--6-6-6-6-
--7-7--7-7--7-7--9--9---9--9--9--9----4-4--4-4--4-4--4-4--4-4-4-4-
------------------------------------------------------------------

----------------------------------------------------------

-----------------6--6--6--6-------------------------------
--4-4--4-4--4-4--6--6--6--6---6-6--6-6--6-6--6-6--6-6-6-6-
--2-2--2-2--2-2--4--4--4--4---4-4--4-4--4-4--4-4--4-4-4-4-
----------------------------------------------------------

--------------------------------------------------------------

-----------------11--11--11--11-------------------------------
--9-9--9-9--9-9--11--11--11--11---6-6--6-6--6-6--6-6--6-6-6-6-
--7-7--7-7--7-7--9---9---9---9----4-4--4-4--4-4--4-4--4-4-4-4-
--------------------------------------------------------------

--------------------------------------------------------------------------

--------------------------------------6----------6----------6----------6--
--4-4--4-4--4-4--6--6--6--6-----------6----------6----------6----------6--
--2-2--2-2--2-2--6--6--6--6---4-4-4-4-4--4-4-4-4-4--4-4-4-4-4--4-4-4-4-4--
-----------------4--4--4--4-----------------------------------------------

----------------------------------------

----------6----------6----------6-------
----------6----------6----------6--6----
--4-4-4-4-4--4-4-4-4-4--4-4-4-4-4--6----
-----------------------------------4----

----------------------------------------------

----------6----------6----------6----------6--
----------6----------6----------6----------6--
--4-4-4-4-4--4-4-4-4-4--4-4-4-4-4--4-4-4-4-4--
----------------------------------------------

----------------------------------------

----------6----------6----------6-------
----------6----------6----------6--5----
--4-4-4-4-4--4-4-4-4-4--4-4-4-4-4--5----
-----------------------------------3----

----------------------------------------------

----------4----------4----------4----------4--
----------4----------4----------4----------4--
--2-2-2-2-2--2-2-2-2-2--2-2-2-2-2--2-2-2-2-2--
----------------------------------------------

-----------------------------------------

----------4----------4----------4--------
----------4----------4----------4-----5--
--2-2-2-2-2--2-2-2-2-2--2-2-2-2-2--2--3--
-----------------------------------0-----

----------------------------------------------

----------4----------4----------4----------4--
----------4----------4----------4----------4--
--2-2-2-2-2--2-2-2-2-2--2-2-2-2-2--2-2-2-2-2--
----------------------------------------------

-------------------------------------------------------------

----------4----------4----------4----------------------------
----------4----------4----------4----------------------------
--2-2-2-2-2--2-2-2-2-2--2-2-2-2-2--8-7-6-5-------------------
-------------------------------------------------------------]

-

Перевод:Убийца Родни

В кого ружья стреляли,
По кому в молитвах рыдали,
Поклон после войны,
Быть может, религии тому лишь в утешение даны.

Некоторые раны никогда не излечутся,
Некоторые слезы никогда сухими не станутся,
Но их нет для тех в ком нету жалости,
За Человечество те слезы не иссякнут в малости.

Мертвые не плачут, им дан покой, успокоение.
Но убиты твои друзья, и это преступленье,
Не в силах я понять, разум объять,
Дети-орхидеи, слепые могут пристально глядять.

И нужно осознать - такое нельзя простить,
Нет чувства, которое в разум можно уместить.

"Такой невыносимый страх, встретить своего старого друга"
"Время, чтобы умереть, слабак. Сейчас ты узнаешь, кто есть Я!"
"В этом мире миллионов религий - всеми ими заклинаю, чтобы отказался от того,
Что задумал"
"Твоя молитва - лишь жалкая дрожь, слабость"
"Господь, помоги мне, укрой своей силой!"
"Нет никакого бога. Ваше вера лишь в вас самих".
"Нет никакого геройства, в том чтобы убивать слабых".
"Испить кровь этих жертв, на этой крови построить себе известность".

15 свечей - искупителей этого мира.
И вопрос, весь в лицемерье жира:
"Как знать могли, что разразиться эта сила?"

4 розовых,
9 синих
3 черных

- В память Искупителей 20.4. 1999

-

Keyboard 1.

[E--0-0-7-0-7-8-0-5-7-0-3-5-0-5-7-0---8-0-7-----7-5---5-3---2---------
B------------------------------------------3-7-----3-----3---3-5-5-5-
G--------------------------------------------------------------------
D--------------------------------------------------------------------
A--------------------------------------------------------------------
E--------------------------------------------------------------------

--7-0-7-8-0-5-7-0-3-5-0-5-7-0-8-0---7-0-2-7-5-0-5-3--2--0-
----------------------------------------------------------
----------------------------------------------------------
----------------------------------------------------------
----------------------------------------------------------
----------------------------------------------------------

--0-0-7-0-7-8-0-5-7-0-3-5-0-5-7-0---8-0-7-----7-5---5-3---2---------
------------------------------------------3-7-----3-----3---3-5-5-5-
--------------------------------------------------------------------
--------------------------------------------------------------------
--------------------------------------------------------------------
--------------------------------------------------------------------

--7-0-7-8-0-5-7-0-3-5-0-5-7-0-8-0---7-0-2-7-5-0-5-3--2--0-------------------
----------------------------------------------------------------------------
----------------------------------------------------------------------------
----------------------------------------------------------------------------
----------------------------------------------------------------------------
----------------------------------------------------------------------------

------------------------------------------------------------------------
------------------------------------------------------------------------
------------------------------------------------------------------------
------------------------------------------------------------------------
------------------------------------------------------------------------
------------------------------------------------------------------------

------------------------------------------------------------------------
------------------------------------------------------------------------
------------------------------------------------------------------------
------------------------------------------------------------------------
------------------------------------------------------------------------
------------------------------------------------------------------------

------------------------------------------------------------------------
------------------------------------------------------------------------
------------------------------------------------------------------------
------------------------------------------------------------------------
------------------------------------------------------------------------
------------------------------------------------------------------------

------------------------------------------------------------------------
------------------------------------------------------------------------
------------------------------------------------------------------------
------------------------------------------------------------------------
------------------------------------------------------------------------
------------------------------------------------------------------------

------------------------------------------------------------------------
------------------------------------------------------------------------
------------------------------------------------------------------------
------------------------------------------------------------------------
------------------------------------------------------------------------
------------------------------------------------------------------------

------------------------------------------------------------------------
------------------------------------------------------------------------
------------------------------------------------------------------------
------------------------------------------------------------------------
------------------------------------------------------------------------
------------------------------------------------------------------------

------------------------------------------------------------------------
------------------------------------------------------------------------
------------------------------------------------------------------------
------------------------------------------------------------------------
------------------------------------------------------------------------
------------------------------------------------------------------------

------------------------------------------------------------------------
------------------------------------------------------------------------
------------------------------------------------------------------------
------------------------------------------------------------------------
------------------------------------------------------------------------
------------------------------------------------------------------------

------------------------------------------------------------------------
------------------------------------------------------------------------
------------------------------------------------------------------------
------------------------------------------------------------------------
------------------------------------------------------------------------
------------------------------------------------------------------------

--------------------7-0-0-7-0-0-7-0-7-0-7-0-5--5--
--------------------------------------------------
--------------------------------------------------
--------------------------------------------------
--------------------------------------------------
--------------------------------------------------

--7-0-0-7-0-0-7-0-7-0-7-0-8-8-10-10---7-0-0-7-0-0-7-0-7-0-7-0-5--5--
--------------------------------------------------------------------
--------------------------------------------------------------------
--------------------------------------------------------------------
--------------------------------------------------------------------
--------------------------------------------------------------------

--7-0-0-7-0-0-7-0-8--8--6--6----7-0-0-7-0-0-7-0-7-0-7-0-5--5--
--------------------------------------------------------------
--------------------------------------------------------------
--------------------------------------------------------------
--------------------------------------------------------------
--------------------------------------------------------------

--7-0-0-7-0-0-7-0-7-0-7-0-8-8-10-10---7-0-0-7-0-0-7-0-7-0-7-0-5--5--
--------------------------------------------------------------------
--------------------------------------------------------------------
--------------------------------------------------------------------
--------------------------------------------------------------------
--------------------------------------------------------------------

--7-0-0-7-0-0-7-0-8--8--6--6--------------------------------------
------------------------------------------------------------------
------------------------------------------------------------------
------------------------------------------------------------------
------------------------------------------------------------------
------------------------------------------------------------------

------------------------------------------------------------------------
------------------------------------------------------------------------
------------------------------------------------------------------------
------------------------------------------------------------------------
------------------------------------------------------------------------
------------------------------------------------------------------------

--------------------------------------7-0-0-7-0-0-7-0-7-0-7-0-5--5--
--------------------------------------------------------------------
--------------------------------------------------------------------
--------------------------------------------------------------------
--------------------------------------------------------------------
--------------------------------------------------------------------

--7-0-0-7-0-0-7-0-7-0-7-0-8-8-10-10---7-0-0-7-0-0-7-0-7-0-7-0-5--5--
--------------------------------------------------------------------
--------------------------------------------------------------------
--------------------------------------------------------------------
--------------------------------------------------------------------
--------------------------------------------------------------------

--7-0-0-7-0-0-7-0-8--8--6--6--------------------------------------
------------------------------------------------------------------
------------------------------------------------------------------
------------------------------------------------------------------
------------------------------------------------------------------
------------------------------------------------------------------

------------------------------------------------------------------------
------------------------------------------------------------------------
------------------------------------------------------------------------
------------------------------------------------------------------------
------------------------------------------------------------------------
------------------------------------------------------------------------

------------------------------------------------------------------------
------------------------------------------------------------------------
------------------------------------------------------------------------
------------------------------------------------------------------------
------------------------------------------------------------------------
------------------------------------------------------------------------

------------------------------------------------------------------------
------------------------------------------------------------------------
------------------------------------------------------------------------
------------------------------------------------------------------------
------------------------------------------------------------------------
------------------------------------------------------------------------

------------------------------------------------------------------------
------------------------------------------------------------------------
------------------------------------------------------------------------
------------------------------------------------------------------------
------------------------------------------------------------------------
------------------------------------------------------------------------

------------------------------------------------------
------------------------------------------------------
------------------------------------------------------
------------------------------------------------------

------------------------------------------------------]

-

Keyboard 2.

[E--------------------------------------------------------------------
B--------------------------------------------------------------------
G--------------------------------------------------------------------
D--------------------------------------------------------------------
A--------------------------------------------------------------------
E--------------------------------------------------------------------

--------------------------------------------------------------------
--------------------------------------------------------------------
--------------------------------------------------------------------
--------------------------------------------------------------------
--------------------------------------------------------------------
--------------------------------------------------------------------

------------------------------------------------------------------------
------------------------------------------------------------------------
------------------------------------------------------------------------
------------------------------------------------------------------------
------------------------------------------------------------------------
------------------------------------------------------------------------

--4--------------------------2----------4--------------------------2--------
--5--------------------------2----------5--------------------------2--------
--6--------------------------2----------6--------------------------2--------
----------------------------------------------------------------------------
----------------------------------------------------------------------------
----------------------------------------------------------------------------

------------------------------------------------------------------------
------------------------------------------------------------------------
------------------------------------------------------------------------
------------------------------------------------------------------------
------------------------------------------------------------------------
------------------------------------------------------------------------

------------------------------------------------------------------------
------------------------------------------------------------------------
------------------------------------------------------------------------
------------------------------------------------------------------------
------------------------------------------------------------------------
------------------------------------------------------------------------

----4----4----4----4------4----4----4--4--------4----4----4----4--
---------------------------------------4--------------------------
----6----6----6----6------6----6----6--5--------6----6----6----6--
------------------------------------------------------------------

---------------------------------------4--------------------------

----4----4----4--3--------2----2----2----2------2----2--0----2----
-----------------3------------------------------------------------
----6----6----6--4--------3----3----3----3------3----3--1----4----
------------------------------------------------------------------
------------------------------------------------------------------
------------------------------------------------------------------

----2----2----2----2------2----2----2----------------------------

----3----3----3----3------3----3----3----------------------------

---------------------------------------8-7-6-5-------------------
-----------------------------------------------------------------

------------------------------------------------------------------------
------------------------------------------------------------------------
------------------------------------------------------------------------
------------------------------------------------------------------------
------------------------------------------------------------------------
------------------------------------------------------------------------

------------------------------------------------------------------------
------------------------------------------------------------------------
------------------------------------------------------------------------
------------------------------------------------------------------------
------------------------------------------------------------------------
------------------------------------------------------------------------

------------------------------------------------------------------------
------------------------------------------------------------------------
------------------------------------------------------------------------
------------------------------------------------------------------------
------------------------------------------------------------------------
------------------------------------------------------------------------

------------------------------------------------------------------------
------------------------------------------------------------------------
------------------------------------------------------------------------
------------------------------------------------------------------------
------------------------------------------------------------------------
------------------------------------------------------------------------

------------------------------------------------------------------------
------------------------------------------------------------------------
------------------------------------------------------------------------
------------------------------------------------------------------------
------------------------------------------------------------------------
------------------------------------------------------------------------

--------------------4--------------------------2----------4----------------
--------------------5--------------------------2----------4----------------
--------------------6--------------------------2----------5----------------
---------------------------------------------------------------------------
---------------------------------------------------------------------------
---------------------------------------------------------------------------

--------------------4--------------------------2----------4----------------
--------------------5--------------------------2----------4----------------
--------------------6--------------------------2----------5----------------
---------------------------------------------------------------------------
---------------------------------------------------------------------------
---------------------------------------------------------------------------

------------------------------------------------------------------------
------------------------------------------------------------------------
------------------------------------------------------------------------
------------------------------------------------------------------------
------------------------------------------------------------------------
------------------------------------------------------------------------

--------------------4--------------------------2----------4----------------
--------------------5--------------------------2----------4----------------
--------------------6--------------------------2----------5----------------
---------------------------------------------------------------------------
---------------------------------------------------------------------------
---------------------------------------------------------------------------

--------------------4------------------7--------9---------
--------------------5------------------8--------10--------
--------------------6------------------9--------11--------
----------------------------------------------------------
----------------------------------------------------------
----------------------------------------------------------

--4------------------2---------4--4--4--4---4----------------
--5------------------4---------5--5--5--5---5----------------
--6------------------4---------6--6--6--6---6----------------
-------------------------------------------------------------
-------------------------------------------------------------
-------------------------------------------------------------

--7---------9---9---9---9----4------------------2---------4--4--4--4-
--8---------10--10--10--10---5------------------4---------4--4--4--4-
--9---------11--11--11--11---6------------------4---------5--5--5--5-
---------------------------------------------------------------------
---------------------------------------------------------------------
---------------------------------------------------------------------

------------------------------------------------------------------------
------------------------------------------------------------------------
------------------------------------------------------------------------
------------------------------------------------------------------------
------------------------------------------------------------------------
------------------------------------------------------------------------

------------------------------------------------------------------------
------------------------------------------------------------------------
------------------------------------------------------------------------
------------------------------------------------------------------------
------------------------------------------------------------------------
------------------------------------------------------------------------

------------------
------------------
------------------
------------------

------------------]

Log In to leave a comment

After registration we will return you to the same place
Comments
face-with-monocle
If you wait a bit, some comments may appear here...

Shhh...