Loading...
Nickelback logo

Woke Up This Morning Nickelback

  • 0
  • Share
  • Transposing
    0
  • Font Size
Tabbed by ToRK

Nickelback
03-Woke up this morning
Taken off the album Silver Side up
Email: [email protected]

Intro:
(X2)
E -----------------------------------------------------------
B -----------------------------------------------------------
G -----------------------------------------------------------
D ----------------------------8-8------------------------6-6-
A -----10-8-10------10-8-10---8-8----10-8-10----10-8-10--6-6-
E –8-8----------8-8-----------6-6-8-8--------8-8---------4-4-

E -----------------------------------------------------
B -----------------------------------------------------
G --------------------------------------------5-5--7-7-
D --------------------------8-8---------------6-6--8-8-
A ----10-8-10-----10-8-10---6-6------10-8-10--6-6--8-8-
E 8-8---------8-8-----------6-6--8-8-------------------

Rap Verse:
E ------------------------------------------
B ------------------------------------------
G ------------------------------------------
D ------------------------------------------
A --10-8-10--10-8-10-6---10-8-10--10-8-10-6-
E -8--------8-----------8--------8----------

Pre-Chorus: “ all of this..., all of this...”
Play the 10-8-10 part really fast!!
E ----------------------------------------------------
B ----------------------------------------------------
G ----------------------------------------------------
D -----10-8-10---8h10-10h12-----10-8-10---8h10-10h12--
A –---------------------------------------------------
E -8-8---------8------------8-8---------8-------------

“All of this, all of this...”
E -------------------------
B -------------------------
G -------------------------
D ----10------------12-----
A --10------------12-------
E -8------------10---------

Chorus:
(X2)
E -------------------------------
B -------------------------------
G –5xx55----------5xx55-666-888--
D –5xx55-666-888--5xx55-666-888--
A –3xx33-666-888--3xx33-444-666--
E -------444-666-----------------

Solo:
E ------------------------------------------------------------
B ------------------------------------------------------------
G ------------------------------------------------------------
D ------------------------------------------------------------
A –-4-5-7---------4-5-7----------4-5-7---------4-5-7----------
E -6------7-5-2-6-------3-2-1-0-6------3-2-1-4-------3-2-1-0—-

E ------------------------------------------------------------
B ------------------------------------------------------------
G ------------------------------------------------------------
D ------------------------------------------------------------
A –-4-5-7---------4-5-7----------4-5-7---------4-5-7----------
E -6------7-5-2-6-------3-2-1-0-6------3-2-1-4-------3-2-1-0—-

Here’s how it all comes together:
Intro Riff
Rap Verse
Pre-Chorus
Chorus
Intro Riff
Rap Verse
Pre-Chorus
Chorus
Intro Riff
Solo
Pre-Chorus
Chorus
Intro Riff
End on A#

Any comments or corrections are welcome and can be sent to my email.

Later

ToRK

Log In to leave a comment

After registration we will return you to the same place
Comments
face-with-monocle
If you wait a bit, some comments may appear here...

Shhh...