Nickelback logo

Someday Nickelback

  • 4
  • Share
  • Transposing
    0
  • Font Size
    15
Nickelback – Someday
Chords Used: Bm - x24322 (I'm not too sure about this)
                     G   - 230030
                     A   - 002200
                     D   - xx0230
                     E   - 022100

Bm               G                 A
How the hell'd we wind up like this
      D
Why weren't we able
Bm           G                 A
To see the signs that we missed
        D
Try and turn the tables
Bm            G                A
I wish you'd unclench your fists
      D
And unpack your suitcase
Bm                 G               A
Lately theres been too much of this
        D
But don't think it's too late
E
Nothings wrong
            A
Just as long as you know that someday I will

G         D
Someday, Somehow
A                        E
I'm gonna make it alright but not alright now
G                A             Bm                 A
I know your're  wondering away (your're the only one who knows that)
G         D
Someday, Somehow
A                       E
I'm gonna make it alright but not alright now
G               A           Bm
I know you're wondering away

      Bm                      G         A
Well I hope that since we're here anyway
        D
We could end up saying
Bm                    G          A
Things we've always needed to say
          D
So we could end up staying
Bm               G                 A
Now the story's played out like this
           D
Just like a paperback novel
Bm              G               A
Lets rewrite an ending that fits
          D
Instead of hollywood horror
E
Nothings wrong
          A
Just as long as you know that someday I will

G         D
Someday, Somehow
A                       E
I'm gonna make it alright but not alright now
G              A           Bm                  A
I know your're wondering away (your're the only one who knows that)
G         D
Someday, Somehow
A                       E
I'm gonna make it alright but not alright now
G             A           Bm
I know you're wondering away

(Same chords as used in the chorus)

E|-------------------------------------------------------------------------
B|-----------------------------------------------2--3----2-3---2-3---------
G|-----4 6h7-6---4-------4-6h7-6----4----2--3----------4------2------------
D|--0----------7------4----------7----0--------2---------------------------
A|-------------------------------------------------------------------------
E|-------------------------------------------------------------------------

E|-------------------------------------------------------------------------
B|-----22--33-----55--22--33-----22-33-----77--------------22--33----5-7-0-
G|-444---------22------------444--------22----66-77----444--------22-------
D|-------------------------------------------------------------------------
A|-------------------------------------------------------------------------
E|-------------------------------------------------------------------------

Bm                G               A
How the hell'd we wind up like this
       D
Why weren't we able
Bm            G                A
To see the signs that we missed
         D
And try and turn the tables
Bm               G                A
Now the story's played out like this
           D
Just like a paperback novel
Bm                 G             A
Lets rewrite and ending that fits
           D
Instead of hollywood horror
E
Nothings wrong
            A
Just as long as you know that someday I will

G         D
Someday, Somehow
A                       E
I'm gonna make it alright but not alright now
G             A            Bm                A
I know you're wondering away (you're the only one who knows that)
G         D
Someday, Somehow
A                       E
I'm gonna make it alright but not alright now
G             A              Bm               A
I know you're wondering away (You're the only one who knows that)
G             A              Bm               A
I know you're wondering away (You're the only one who knows that)
G             A           E
I know you're wondering away

Log In to leave a comment

After registration we will return you to the same place
Comments
face-with-monocle
If you wait a bit, some comments may appear here...

Shhh...