• 0
  • Share
  • Transposing
    0
  • Font Size
New Amsterdams – Goodbye
----------------------------------------------------------------------------
GOODBYE - The New Amsterdams
----------------------------------------------------------------------------

Tabbed by: DrkSydeOTM
Email: [email protected]

Tuning: Standard - Capo on the second fret

All chords relative to capo on 2

Am - x02210
C - x32010
G - 320033
Em - 022000

Intro:
(listen for strum pattern)
Am C G Em G Em
E|-0--0--0--0----0--0--0--0--0--0-------0-----------3----0----3----0-------|
B|-1--1--1--0h1--1--0--0--1--1--0h1--3-----3--1-----3----0----3----0-------|
G|-2--2--2--2----2--2--2--0--0--0----------------0--0----0----0----0-------|
D|-2--2--2--2----2--2--2--2--2--2-------------------0----2----0----2-------|
A|-0--0--0--0----0--0--0--3--3--3-------------------2----2----2----2-------|
E|-x--x--x--x----x--x--x--x--x--x-------------------3----0----3----0-------|

Am C
Wait up for me
G Em
You're where I want to be

Am C
Stop long enough
G Em G Em
To say goodbye, goodbye, goodbye

Am C G Em G Em
It's all said and done

Am C
Keeps me at ease
G Em
Sings us both to sleep

Am C
Don't have to say
G Em G Em
Goodbye, goodbye, goodbye

Am C (strum once)
All's said and done
G (strum once)
Goodbye

Log In to leave a comment

After registration we will return you to the same place
Comments
face-with-monocle
If you wait a bit, some comments may appear here...

Shhh...