• 0
  • Share
  • Font Size
My Chemical Romance – Sleep
Tabbed by: dxnigxllx03

Tis is the piano part it's my first tab so it's not perfect although it's very easy but
Has tabbed it yet so i jope you like it.

Sleep
Intro (piano)
E|--------------------------|---------------------------|
B|--------------------------|---------------------------|
G|--5-----5-----------------|--------------6-----6------|
D|--5-5-5-5----3-----3------|--5-----5-----5-----5------|
A|--3-3-3-3-3--3-3-3-3-3-3--|--5-5-5-5-5-5-5-5-5-5-5-5--|
E|-----------4-1-1-1-1-1-1--|--3-3-3-3-3-3-3-3-3-3-3-3--|

E|--------------------------|---------------------------|
B|--------------------------|---------------------------|
G|--5-----5-----------------|--------------6-----6------|everything
D|--5-5-5-5----3------------|--5-----5-----5-----5------| x2
A|--3-3-3-3-3--3-3-3--1--3--|--5-5-5-5-5-5-5-5-5-5-5-5--|
E|-----------4-1-1-1--------|--3-3-3-3-3-3-3-3-3-3-3-3--|

Note: it's the same on the verse and on minute 2:47

Log In to leave a comment

After registration we will return you to the same place
Comments
face-with-monocle
If you wait a bit, some comments may appear here...

Shhh...