Loading...
My Chemical Romance logo

Do You Know What They Do To Guys Like Us In Prison My Chemical Romance

  • 0
  • Share
  • Transposing
    0
  • Font Size
Gtr I ( E A D G B E) - 'Clean'
Gtr II ( E A D G B E) - 'Clean 2'
Gtr III ( E A D G B E) - 'Disтоrтiоn'
Gtr IV ( E A D G B E) - 'Disтоrтiоn 2'
Gtr V ( E A D G B E) - 'Clean 3'
Gtr VI ( E A D G B E) - 'Disтоrтiоn 3'

Inтrо/Verse
Q=195
Gm Cm
4/4
Gtr II
q q q q q q q q q q q q q q q q
|-------------|-------------|-----------------|-----------------|
|-------------|-------------|-----------------|-----------------|
|-3--3--3--3--|-3--3--3--3--|--8---8---8---8--|--8---8---8---8--|
|-5--5--5--5--|-5--5--5--5--|-10--10--10--10--|-10--10---8---8--|
|-------------|-------------|-----------------|-----------------|
|-------------|-------------|-----------------|-----------------|
|
| Gtr I
| q q q q q q q q q q q q q q q q
|-------------|-------------|-11--11--11--11--|-11--11--11--11--|
|-8--8--8--8--|-8--8--8--8--|-13--13--13--13--|-13--13--11--11--|
|-7--7--7--7--|-7--7--7--7--|-----------------|-----------------|
|-------------|-------------|-----------------|-----------------|
|-------------|-------------|-----------------|-----------------|
|-------------|-------------|-----------------|-----------------|

C G5/D D
q q q q q q q q q q q q q q q q
|-----------------|-----------------|------------------|---------------------|
|-----------------|-----------------|--8----8---8---8--|---7-----7---7---7---|
|--8---8---8---8--|--8---8---8---8--|--7----7---7---7--|---7-----7---7---7---|
|--7---7---7---7--|--7---7---7---7--|------------------|---------------------|
|-----------------|-----------------|------------------|---------------------|
|-----------------|-----------------|------------------|---------------------|
|
| q q q q q q q q q q q q q q q q
|-11--11--11--11--|-11--11--11--11--|------------------|---------------------|
|-10--10--10--10--|-10--10--10--10--|-10---10--10--10--|--10----10--10--10---|
|-----------------|-----------------|-11---11--11--11--|--11----11--11--11---|
|-----------------|-----------------|------------------|---------------------|
|-----------------|-----------------|------------------|---------------------|
|-----------------|-----------------|------------------|---------------------|
|
| Gtr IV
| W W W + H. Q
|-----------------|-----------------|------------------|---------------------|
|-----------------|-----------------|---------------|-()---------------|
|-----------------|-----------------|------------------|---------------------|
|-----------------|-----------------|------------------|-----------------3---|
|-----------------|-----------------|------------------|---------------------|
|-----------------|-----------------|------------------|---------------------|

Gm Cm
q q q q q q q q q q q q q q q q
||---------------|---------------|------------------|---------------------|
||о--------------|---------------|------------------|---------------------|
||--3--3--3--3---|--3---3--3--3--|--8---8---8---8---|--8----8---8--8------|
||--5--5--5--5---|--5---5--5--5--|-10--10--10--10---|-10---10---8--8------|
||о--------------|---------------|------------------|---------------------|
||---------------|---------------|------------------|---------------------|
|
| Gtr IV
| q q q E E +W q q q E E +Q. B + E
||---------------|---------------|------------------|---------------------|
||о--------------|---------------|------------------|---------------------|
||---------------|---------------|------------------|---------------------|
||--7--7--7--7p5-|-(5)-----------|--7---7---7--10p8-|-(8)-----7------(7)/-|
||о--------------|---------------|------------------|---------------------|
||---------------|---------------|------------------|---------------------|

C G5/D D
q q q q q q q q q q q q q q q q
|--------------|------------------|----------------|-----------------||
|--------------|------------------|-8--8--8----8---|--7---7--7--7---о||
|-8--8--8--8---|--8---8----8---8--|-7--7--7----7---|--7---7--7--7----||
|-7--7--7--7---|--7---7----7---7--|----------------|-----------------||
|--------------|------------------|----------------|----------------о||
|--------------|------------------|----------------|-----------------||
|
| ~~~~~~~~
| q q q E E +Q. Q. Q q q E E E E + H. Q
|--------------|------------------|----------------|-----------------||
|--------------|------------------|----------------|----------------о||
|-7--7--7--8p7-|-(7)--------------|----------------|-----------------||
|--------------|--------8-----10--|-8--8--8h10p8-7-|-(7)-------------||
|--------------|------------------|----------------|------------8---о||
|--------------|------------------|----------------|-----------------||

Gm Cm D#5/A#
q q q q q q q q q q q q q q q q
|--------------|---------------|------------------|----------------------|
|--------------|---------------|------------------|----------------------|
|-3--3--3--3---|--3---3--3--3--|--8---8---8---8---|--8----8---8--8-------|
|-5--5--5--5---|--5---5--5--5--|-10--10--10--10---|-10---10---8--8-------|
|--------------|---------------|------------------|----------------------|
|--------------|---------------|------------------|----------------------|
|
| Gtr IV
| q q q E E +W q q q E E +Q. B + E
|--------------|---------------|------------------|----------------------|
|--------------|---------------|------------------|----------------------|
|--------------|---------------|------------------|----------------------|
|-7--7--7--7p5-|-(5)-----------|--7---7---7--10p8-|-(8)-----7------(7)/--|
|--------------|---------------|------------------|----------------------|
|--------------|---------------|------------------|----------------------|

C G5/D D
q q q q q q q q q q q q q q q q
|--------------|---------------|----------------|----------------|
|--------------|---------------|-8--8----8--8---|--7---7--7--7---|
|-8--8--8--8---|--8---8--8--8--|-7--7----7--7---|--7---7--7--7---|
|-7--7--7--7---|--7---7--7--7--|----------------|----------------|
|--------------|---------------|----------------|----------------|
|--------------|---------------|----------------|----------------|
|
| ~~~~~~~~ ~ ~~ ~~~~~~~~
| q q q E E + H. Q Q E Q. E E +Q Q Q Q
|--------------|---------------|----------------|----------------|
|--------------|---------------|----------------|----------------|
|-7--7--7--8p7-|-(7)--------8p=|=7--8p7-----8p7-|-(7)--5---------|
|--------------|---------------|----------------|---------8--7---|
|--------------|---------------|----------------|----------------|
|--------------|---------------|----------------|----------------|

Сноrus
G5 C5
Gtrs III, IV
E E E E E E E E E E E E E E E E E E E E E E E E E E E E E E E E
|-----------------|-----------------|-----------------|------------------|
|-----------------|-----------------|-----------------|------------------|
|-----------------|-----------------|-5-5-5-5-5-5-5-5-|-5-5-5-5-5-5-5-5--|
|-5-5-5-5-5-5-5-5-|-5-5-5-5-5-5-5-5-|-5-5-5-5-5-5-5-5-|-5-5-5-5-5-5-5-5--|
|-5-5-5-5-5-5-5-5-|-5-5-5-5-5-5-5-5-|-3-3-3-3-3-3-3-3-|-3-3-3-3-3-3-3-3--|
|-3-3-3-3-3-3-3-3-|-3-3-3-3-3-3-3-3-|-----------------|------------------|

F5 N.С.
E E E E E E E E E E E E E E E E E E E E E E E E E E E E E E E E
|-----------------|-----------------|-----------------|-----------------------|
|-----------------|-----------------|-----------------|-----------------------|
|-----------------|-----------------|-7-7-7-7-7-8-8-8-|-11-11-11-11-11-8-8-8--|
|-3-3-3-3-3-3-3-3-|-3-3-3-3-3-3-3-3-|-----------------|-----------------------|
|-3-3-3-3-3-3-3-3-|-3-3-3-3-3-3-3-3-|-5-5-5-5-5-6-6-6-|--9--9--9--9--9-6-6-6--|
|-1-1-1-1-1-1-1-1-|-1-1-1-1-1-1-1-1-|-----------------|-----------------------|

G5 C5
E E E E E E E E E E E E E E E E E E E E E E E E E E E E E E E E
|-----------------|-----------------|-----------------|------------------|
|-----------------|-----------------|-----------------|------------------|
|-----------------|-----------------|-5-5-5-5-5-5-5-5-|-5-5-5-5-5-5-5-5--|
|-5-5-5-5-5-5-5-5-|-5-5-5-5-5-5-5-5-|-5-5-5-5-5-5-5-5-|-5-5-5-5-5-5-5-5--|
|-5-5-5-5-5-5-5-5-|-5-5-5-5-5-5-5-5-|-3-3-3-3-3-3-3-3-|-3-3-3-3-3-3-3-3--|
|-3-3-3-3-3-3-3-3-|-3-3-3-3-3-3-3-3-|-----------------|------------------|

F5
E E E E E E E E E E E E E E E E
|-----------------|-----------------|
|-----------------|-----------------|
|-----------------|-----------------|
|-3-3-3-3-3-3-3-3-|-3-3-3-3-3-3-3-3-|
|-3-3-3-3-3-3-3-3-|-3-3-3-3-3-3-3-3-|
|-1-1-1-1-1-1-1-1-|-1-1-1-1-1-1-1-1-|

N.С.
E E E E E E E E E E E E E E E E
|-----------------|--------------------------|
|-----------------|--------------------------|
|-7-7-7-7-7-8-8-8-|-11-11-11-11-11-12-12-12--|
|-----------------|--------------------------|
|-5-5-5-5-5-6-6-6-|--9--9--9--9--9-10-10-10--|
|-----------------|--------------------------|

Verse
G5 C5 A#5
Gtr III
PM-----------------------------------------------------------------------|
E E E E E E E E E E E E E E E E E E E E E E E E E E E E E E E E
|------------------|--------------------|------------------|------------------|
|------------------|--------------------|------------------|------------------|
|------------------|--------------------|------------------|------------------|
|------------------|--------------------|-5--5-5-5-5-5-5-5-|-5-5-5-5-3-3-3-3--|
|-5--5-5-5-5-5-5-5-|--5--5-5-5-5-5--5-5-|-3--3-3-3-3-3-3-3-|-3-3-3-3-1-1-1-1--|
|-3--3-3-3-3-3-3-3-|--3--3-3-3-3-3--3-3-|------------------|------------------|
|
| Gtr IV
| TP TPTP TP TP TP TP TP TP
| H. E E + B Q Q H. Q W
|------------------|--------------------|------------------|------------------|
|------------------|--------------------|------------------|------------------|
|-7------------8-7-|-(7)----------------|------------------|------------------|
|------------------|-----------8---10---|-7------------8---|-5----------------|
|-5------------6-5-|-(5)----------------|------------------|------------------|
|------------------|-----------6----8---|-5------------6---|-3----------------|

A5 D5
PM----------------------------------------------------------------------|
E E E E E E E E E E E E E E E E E E E E E E E E E E E E E E E E
|------------------|-------------------|------------------|------------------|
|------------------|-------------------|------------------|------------------|
|------------------|-------------------|------------------|------------------|
|-2--2-2-2-2-2-2-2-|--2--2-2-2-2-2-2-2-|--7-7-7-7-7-7-7-7-|-7-7-7-7-7-7-7-7--|
|-0--0-0-0-0-0-0-0-|--0--0-0-0-0-0-0-0-|--5-5-5-5-5-5-5-5-|-5-5-5-5-5-5-5-5--|
|------------------|-------------------|------------------|------------------|
|
| TP TPTP TP TP TP TP TP TP TP TP TP
| H. E E +W Q Q Q Q Q Q Q Q
|------------------|-------------------|------------------|------------------|
|------------------|-------------------|------------------|------------------|
|------------------|-------------------|------------------|------------------|
|-7------------8-7-|-(7)---------------|-10---8---7---5---|-8---7---5---3----|
|------------------|-------------------|------------------|------------------|
|-5------------6-5-|-(5)---------------|--8---6---5---3---|-6---5---3---1----|

G5 C5 A#5
PM-----------------------------------|
E E Q E E Q E E Q E E Q E E E E E E E E E E E E E E E E
|-----------------|------------------|-------------------|---------------------|
|-----------------|------------------|-------------------|---------------------|
|-----------------|------------------|-------------------|---------------------|
|------5------5---|-------5-------5--|-5--5-5-5-5-5-5--5-|---5--5-5-5-3-3-3-3--|
|------5------5---|-------5-------5--|-3--3-3-3-3-3-3--3-|---3--3-3-3-1-1-1-1--|
|-3--3-3--3-3-3---|--3--3-3---3-3-3--|-------------------|---------------------|
|
| TP TPTP TP TP TP TP TP TP TP
| H. E E + B Q Q H. E E +W
|-----------------|------------------|-------------------|---------------------|
|-----------------|------------------|-------------------|---------------------|
|-7-----------8-7-|-(7)------10---8--|-7-----------------|---------------------|
|-----------------|------------------|--------------8-10-|-(10)----------------|
|-5-----------6-5-|-(5)-------8---6--|-5-----------------|---------------------|
|-----------------|------------------|--------------6--8-|--(8)----------------|

A5 D5
PM---------------------------------|
E E E E E E E E E E E E E E E E E E E E E E E E E E E E E E E E
|------------------|-------------------|------------------|--------------------|
|------------------|-------------------|------------------|--------------------|
|------------------|-------------------|-7-7-7-7--7-7-7-7-|--7--7-7-7-7-7-7-7--|
|-2--2-2-2-2-2-2-2-|--2--2-2-2-2-2-2-2-|-7-7-7-7--7-7-7-7-|--7--7-7-7-7-7-7-7--|
|-0--0-0-0-0-0-0-0-|--0--0-0-0-0-0-0-0-|-5-5-5-5--5-5-5-5-|--5--5-5-5-5-5-5-5--|
|------------------|-------------------|------------------|--------------------|
|
| TP TPTP TP TP TPTP TPTP TP TP TP TP
| H. E E +W Q E Q. E E +Q Q Q Q
|------------------|-------------------|------------------|--------------------|
|------------------|-------------------|------------------|--------------------|
|------------------|-------------------|-7---8p7------8p7-|-(7)---5------------|
|-7------------8-7-|-(7)---------------|------------------|-----------8---7----|
|------------------|-------------------|------------------|--------------------|
|-5------------6-5-|-(5)---------------|------------------|--------------------|

Сноrus
G5 C5
Gtrs III, IV
E E E E E E E E E E E E E E E E E E E E E E E E E E E E E E E E
||------------------|-----------------|-----------------|-----------------|
||о-----------------|-----------------|-----------------|-----------------|
||------------------|-----------------|-5-5-5-5-5-5-5-5-|-5-5-5-5-5-5-5-5-|
||--5-5-5-5-5-5-5-5-|-5-5-5-5-5-5-5-5-|-5-5-5-5-5-5-5-5-|-5-5-5-5-5-5-5-5-|
||о-5-5-5-5-5-5-5-5-|-5-5-5-5-5-5-5-5-|-3-3-3-3-3-3-3-3-|-3-3-3-3-3-3-3-3-|
||--3-3-3-3-3-3-3-3-|-3-3-3-3-3-3-3-3-|-----------------|-----------------|

F5
E E E E E E E E E E E E E E E E
|-----------------|-----------------|
|-----------------|-----------------|
|-----------------|-----------------|
|-3-3-3-3-3-3-3-3-|-3-3-3-3-3-3-3-3-|
|-3-3-3-3-3-3-3-3-|-3-3-3-3-3-3-3-3-|
|-1-1-1-1-1-1-1-1-|-1-1-1-1-1-1-1-1-|

N.С.
E E E E E E E E E E E E E E E E
|-----------------|---------------------------||
|-----------------|--------------------------о||
|-7-7-7-7-7-8-8-8-|-11-11-11-11-11-12-12-12---||
|-----------------|---------------------------||
|-5-5-5-5-5-6-6-6-|--9--9--9--9--9-10-10-10--о||
|-----------------|---------------------------||

Guitar Break
A#5
Gtr III
~~
W B B
|------------------|--------------------|
|------------------|--------------------|
|-12---------------|-/14-------15-------|
|------------------|--------------------|
|-10---------------|-/12-------13-------|
|------------------|--------------------|
|
| Gtr IV
| PM------------------------------------
| E E E E E E E E E E E E E E E E
|------------------|--------------------|
|------------------|--------------------|
|------------------|--------------------|
|--3-3-3-3-3-3-3-3-|---3-3-3-3--3-3-3-3-|
|--1-1-1-1-1-1-1-1-|---1-1-1-1--1-1-1-1-|
|------------------|--------------------|

C5
~~
W B B
|------------------|---------------------|
|------------------|---------------------|
|-12---------------|-/14-------15--------|
|------------------|---------------------|
|-10---------------|-/12-------13--------|
|------------------|---------------------|
|
|-------------------------------------|
| E E E E E E E E E E E E E E E E
|------------------|---------------------|
|------------------|---------------------|
|------------------|---------------------|
|--5-5-5-5-5-5-5-5-|---5-5-5-5--5-5-5-5--|
|--3-3-3-3-3-3-3-3-|---3-3-3-3--3-3-3-3--|
|------------------|---------------------|

D5
~~
W B B
|------------------|--------------------|
|------------------|--------------------|
|-12---------------|-/14-------12-------|
|------------------|--------------------|
|-10---------------|-/12-------10-------|
|------------------|--------------------|
|
| E E E E E E E E E E E E E E E E
|------------------|--------------------|
|------------------|--------------------|
|------------------|--------------------|
|--7-7-7-7-7-7-7-7-|---7-7-7-7--7-7-7-7-|
|--5-5-5-5-5-5-5-5-|---5-5-5-5--5-5-5-5-|
|------------------|--------------------|

F5
~~
W B B
|------------------|---------------------|
|------------------|---------------------|
|-10---------------|-/14-------15--------|
|------------------|---------------------|
|--8---------------|-/12-------13--------|
|------------------|---------------------|
|
| E E E E E E E E E E E E E E E E
|------------------|---------------------|
|------------------|---------------------|
|------------------|---------------------|
|------------------|---------------------|
|--3-3-3-3-3-3-3-3-|---3-3-3-3--3-3-3-3--|
|--1-1-1-1-1-1-1-1-|---1-1-1-1--1-1-1-1--|

A#5
E E E E E E E E E E E E E E E E
|-------------------------|-------------------------|
|-------------------------|-------------------------|
|-15-15-15-15-15-15-15-15-|-15-15-15-15-15-15-15-15-|
|-------------------------|-------------------------|
|-13-13-13-13-13-13-13-13-|-13-13-13-13-13-13-13-13-|
|-------------------------|-------------------------|
|
| PM------------------------------------------------
| E E E E E E E E E E E E E E E E
|-------------------------|-------------------------|
|-------------------------|-------------------------|
|-------------------------|-------------------------|
|--3--3--3--3--3--3--3--3-|--3--3--3--3--3--3--3--3-|
|--1--1--1--1--1--1--1--1-|--1--1--1--1--1--1--1--1-|
|-------------------------|-------------------------|
|
| Gtr V
| E E E E E E E E E E E E E E E E
|-------------------------|-------------------------|
|-------------------------|-------------------------|
|--7--------7--------7----|--7--------7--------7----|
|-----8--------8--------8-|-----8--------8--------8-|
|--------8--------8-------|--------8--------8-------|
|-------------------------|-------------------------|

C5
E E E E E E E E E E E E E E E E
|-------------------------|------------------------------|
|-------------------------|------------------------------|
|-17-17-17-17-17-17-17-17-|-17b18==17-17-17-17-17-17r17--|
|-------------------------|------------------------------|
|-15-15-15-15-15-15-15-15-|-15-----15-15-15-15-15-15-15--|
|-------------------------|------------------------------|
|
|----------------------------------------------------|
| E E E E E E E E E E E E E E E E
|-------------------------|------------------------------|
|-------------------------|------------------------------|
|-------------------------|------------------------------|
|--5--5--5--5--5--5--5--5-|--5------5--5--5--5--5--5--5--|
|--3--3--3--3--3--3--3--3-|--3------3--3--3--3--3--3--3--|
|-------------------------|------------------------------|
|
| E E E E E E E E E E E E E E E E
|-------------------------|------------------------------|
|-------------------------|------------------------------|
|--8--------8--------8----|--8------------8--------8-----|
|-----8--------8--------8-|---------8--------8--------8--|
|--------8--------8-------|------------8--------8--------|
|-------------------------|------------------------------|

D5
E E E E E E E E E E E E E E E E
|-------------------------|-------------------------|
|-------------------------|-------------------------|
|-14-14-14-14-14-14-14-14-|-15-15-15-15-15-15-15-15-|
|-------------------------|-------------------------|
|-12-12-12-12-12-12-12-12-|-13-13-13-13-13-13-13-13-|
|-------------------------|-------------------------|
|
| E E E E E E E E E E E E E E E E
|-------------------------|-------------------------|
|-------------------------|-------------------------|
|-------------------------|-------------------------|
|--7--7--7--7--7--7--7--7-|--7--7--7--7--7--7--7--7-|
|--5--5--5--5--5--5--5--5-|--5--5--5--5--5--5--5--5-|
|-------------------------|-------------------------|
|
| E E E E E E E E E E E E E E E E
|-15-------15-------15----|----15-------15-------15-|
|----16-------16-------16-|-------16-------16-------|
|-------17-------17-------|-17-------17-------17----|
|-------------------------|-------------------------|
|-------------------------|-------------------------|
|-------------------------|-------------------------|

Bridge
F5 N. C.
>
W +W +W Q H.
|------------|-------------|-------------|--------------------|
|------------|-------------|-------------|--------------------|
|-14---------|-(14)--------|-(14)--------|-[14]--0------------|
|------------|-------------|-------------|--------------------|
|-12---------|-(12)--------|-(12)--------|--------------------|
|------------|-------------|-------------|--------------------|
|
| B B W +W + H. E E
|------------|---5---------|--(5)--------|--(5)--------12-14--|
|-------1----|-------------|-------------|--------------------|
|------------|-------------|-------------|--------------------|
|--3---------|-------------|-------------|--------------------|
|--3---------|-------------|-------------|--------------------|
|--1---------|-------------|-------------|--------------------|
|
| W +W +W +W
|------------|-------------|-------------|--------------------|
|------------|-------------|-------------|--------------------|
|-17---------|-(17)--------|-(17)--------|-(17)---------------|
|------------|-------------|-------------|--------------------|
|------------|-------------|-------------|--------------------|
|------------|-------------|-------------|--------------------|

Guitar Sоlо
G5
Gtr III
E E E E E E E E E E E E E E E E
|--------------------|--------------------|
|--------------------|--------------------|
|--------------------|--------------------|
|--5-5-5-5-5-5-5---5-|--5--5-5-5--5-5-5-5-|
|--5-5-5-5-5-5-5---5-|--5--5-5-5--5-5-5-5-|
|--3-3-3-3-3-3-3---3-|--3--3-3-3--3-3-3-3-|
|
| Gtr IV
| ~~~
| B Q Q +Q E Q. E E
|-15-----------------|--------------------|
|--------------------|--------------------|
|----------0---5b6r==|=(5)---3-2------3---|
|--------------------|------------------5-|
|--------------------|--------------------|
|--------------------|--------------------|

D#5
E E E E E E E E E E E E E E E E
|---------------------|---------------------|
|---------------------|---------------------|
|--8--8-8-8-8-8-8---8-|--8--8-8-8--8-8-8-8--|
|--8--8-8-8-8-8-8---8-|--8--8-8-8--8-8-8-8--|
|--6--6-6-6-6-6-6---6-|--6--6-6-6--6-6-6-6--|
|---------------------|---------------------|
|
|~~~~~
| + H. Q +Q E Q. E E
|---------------------|---------------------|
|---------------------|---------------------|
|---------------5b6r==|=(5)---3-2------3----|
|-(5)-----------------|------------------3--|
|---------------------|---------------------|
|---------------------|---------------------|

A5
E E E E E E E E E E E E E E E E
|---------------------|--------------------|
|---------------------|--------------------|
|---------------------|--------------------|
|--7--7-7-7-7-7-7---7-|--7--7-7-7--7-7-7-7-|
|--7--7-7-7-7-7-7---7-|--7--7-7-7--7-7-7-7-|
|--5--5-5-5-5-5-5---5-|--5--5-5-5--5-5-5-5-|
|
| ~~~ ~~~
| + H. Q +Q E Q. E E
|---------------------|--------------------|
|---------------------|--------------------|
|---------------5b6r==|=(5)---3-2------3---|
|-(3)-----------------|------------------4-|
|---------------------|--------------------|
|---------------------|--------------------|
|
| Gtr VI
| W W
|---------------------|--------------------|
|---------------------|--------------------|
|---------------------|--------------------|
|---------------------|--------------------|
|---------------------|--------------------|
|---------------------|--------------------|

D5
H. E E +Q E Q. E E
|---------------------|---------------------|
|---------------------|---------------------|
|-/3--------------2-0-|-(0)---2-3------5-0--|
|---------------------|---------------------|
|---------------------|---------------------|
|---------------------|---------------------|
|
|~~~~~
| + B +Q E E +Q E Q. E E
|---------------------|---------------------|
|---------------------|---------------------|
|---------------------|-------2-0------2-3--|
|-(4)-------(4)---4-0-|-(0)-----------------|
|---------------------|---------------------|
|---------------------|---------------------|
|
| E E E E E E E E E E E E E E E E
|---------------------|---------------------|
|---------------------|---------------------|
|--7--7-7-7--7--7-7-7-|--7--7-7-7--7-7-7-7--|
|--7--7-7-7--7--7-7-7-|--7--7-7-7--7-7-7-7--|
|--5--5-5-5--5--5-5-5-|--5--5-5-5--5-5-5-5--|
|---------------------|---------------------|

G5 G5
|--3---| |--3--| |--3--| |--3--| |--3---| |--3--| |--3--| |--3--|
E E E E E E E E E E E E E E E E E E E E E E E E
|-----------------------------------|-----------------------------------|
|-----------------------------------|-----------------------------------|
|--0--2---3-2-3---5-3-5---7-5-7---8-|--2--3---5-3-5---7-5-7---8-5-7---8-|
|-----------------------------------|-----------------------------------|
|-----------------------------------|-----------------------------------|
|-----------------------------------|-----------------------------------|
|
| ~~~~~~~~~~~~~~~~~~~~~~~~~~~~~~~~~~~~~~~
| +W +W
|-----------------------------------|-----------------------------------|
|-----------------------------------|-----------------------------------|
|-(3)-------------------------------|-(3)-------------------------------|
|-----------------------------------|-----------------------------------|
|-----------------------------------|-----------------------------------|
|-----------------------------------|-----------------------------------|
|
| E E E E E E E E E E E E E E E E
|-----------------------------------|-----------------------------------|
|-----------------------------------|-----------------------------------|
|-----------------------------------|-----------------------------------|
|--5----5---5---5---5---5---5---5---|--5----5---5---5---5---5---5---5---|
|--5----5---5---5---5---5---5---5---|--5----5---5---5---5---5---5---5---|
|--3----3---3---3---3---3---3---3---|--3----3---3---3---3---3---3---3---|

D#5
|---3---| |---3---| |---3---| |---3---|
E E E E E E E E E E E E
|---------------------------------------------|
|---------------------------------------------|
|--7--8---10-12-14---15-14-15---17-15-17---19-|
|---------------------------------------------|
|---------------------------------------------|
|---------------------------------------------|
|
| ~~~~~~~~~~~~~~~~~~~~~~~~~~~~~~~~~~~~~~~~~~~~
| +W
|---------------------------------------------|
|---------------------------------------------|
|-(3)-----------------------------------------|
|---------------------------------------------|
|---------------------------------------------|
|---------------------------------------------|
|
| E E E E E E E E
|---------------------------------------------|
|---------------------------------------------|
|--8----8-----8----8-----8----8-----8----8----|
|--8----8-----8----8-----8----8-----8----8----|
|--6----6-----6----6-----6----6-----6----6----|
|---------------------------------------------|

~~~
|---3----| |---3---|
E E E E E E E Q.
|------------------------------------|
|-13--15---13-11-13---11-10-11-------|
|------------------------------------|
|------------------------------------|
|------------------------------------|
|------------------------------------|
|
|~~~~~
| +W
|------------------------------------|
|------------------------------------|
|-(3)--------------------------------|
|------------------------------------|
|------------------------------------|
|------------------------------------|
|
| E E E E E E E E
|------------------------------------|
|------------------------------------|
|--8-----8-----8----8-----8--8--8-8--|
|--8-----8-----8----8-----8--8--8-8--|
|--6-----6-----6----6-----6--6--6-6--|
|------------------------------------|

A5 D5
T T T T T T TP TP TP TP
E E E E E E E E E E E E E + E Q Q Q Q Q
|-----14p4-12p4-11p4-9p|==4--7p4-7p4b5r(4)-1---|-11----13---14---16---|
|-11-------------------|-----------------------|----------------------|
|----------------------|-----------------------|----------------------|
|----------------------|-----------------------|----------------------|
|----------------------|-----------------------|----------------------|
|----------------------|-----------------------|----------------------|
|
| ~~~
| +W W W
|----------------------|-----------------------|-------------------|
|----------------------|--------------------|----------------------|
|-(3)------------------|-----------------------|----------------------|
|----------------------|-----------------------|----------------------|
|----------------------|-----------------------|----------------------|
|----------------------|-----------------------|----------------------|
|
| E E E E E E E E E E E E E E E E E E E E E E E E
|----------------------|-----------------------|----------------------|
|----------------------|-----------------------|----------------------|
|----------------------|-----------------------|--7--7--7-7--7-7--7-7-|
|--7---7-7--7-7--7-7-7-|--7--7-7-7-7----7--7-7-|--7--7--7-7--7-7--7-7-|
|--7---7-7--7-7--7-7-7-|--7--7-7-7-7----7--7-7-|--5--5--5-5--5-5--5-5-|
|--5---5-5--5-5--5-5-5-|--5--5-5-5-5----5--5-5-|----------------------|

D5
TP TP
Q Q Q Q
|--18-----20---21b22---21b22---|
|------------------------------|
|------------------------------|
|------------------------------|
|------------------------------|
|------------------------------|
|
| +W
|-()---------------------------|
|------------------------------|
|------------------------------|
|------------------------------|
|------------------------------|
|------------------------------|
|
| E E E E E E E E
|------------------------------|
|------------------------------|
|---7---7--7-7--7----7--7----7-|
|---7---7--7-7--7----7--7----7-|
|---5---5--5-5--5----5--5----5-|
|------------------------------|

Gm
Q +Q B +W
|-21b22.5===(21)r--[0]------|-([0])--------------|
|----------------------------|--------------------|
|----------------------------|--------------------|
|----------------------------|--------------------|
|----------------------------|--------------------|
|----------------------------|--------------------|
|
| W W
|----------------------------|--------------------|
|----------------------------|--------------------|
|----------------------------|--------------------|
|----------------------------|--------------------|
|----------------------------|--------------------|
|----------------------------|--------------------|
|
| Gtr V
| PM-----------------------------------------|
| q q q q q q q q
|----------------------------|--------------------|
|----------------------------|--------------------|
|----------------------------|--------------------|
|--8----------8------8----8--|---8-----8---8---8--|
|-10---------10-----10---10--|--10----10--10--10--|
|----------------------------|--------------------|

Out-Сноrus
C5 N. C.
Gtr III
E E E E E E E E E E E E E E E E
|-----------------|-----------------|---------------|---------------|
|-----------------|-----------------|---------------|---------------|
|-5-5-5-5-5-5-5-5-|-5-5-5-5-5-5-5-5-|---------------|---------------|
|-5-5-5-5-5-5-5-5-|-5-5-5-5-5-5-5-5-|---------------|---------------|
|-3-3-3-3-3-3-3-3-|-3-3-3-3-3-3-3-3-|---------------|---------------|
|-----------------|-----------------|---------------|---------------|
|
| Gtr IV
| E E E E E E E E E E E E E E E E W B B
|-----------------|-----------------|---------------|---------------|
|-----------------|-----------------|---------------|---------------|
|-5-5-5-5-5-5-5-5-|-5-5-5-5-5-5-5-5-|---------------|---------------|
|-5-5-5-5-5-5-5-5-|-5-5-5-5-5-5-5-5-|---------------|---------------|
|-3-3-3-3-3-3-3-3-|-3-3-3-3-3-3-3-3-|---------------|---------------|
|-----------------|-----------------|---------------|---------------|

E E E E E E E E E E E E E E E E
|-----------------|-------------------------|
|-----------------|-------------------------|
|-7-7-7-7-7-8-8-8-|-11-11-11-11-11-12-12-12-|
|-----------------|-------------------------|
|-5-5-5-5-5-6-6-6-|--9--9--9--9--9-10-10-10-|
|-----------------|-------------------------|
|
| E E E E E E E E E E E E E E E E
|-----------------|-------------------------|
|-----------------|-------------------------|
|-7-7-7-7-7-8-8-8-|-11-11-11-11-11-12-12-12-|
|-----------------|-------------------------|
|-5-5-5-5-5-6-6-6-|--9--9--9--9--9-10-10-10-|
|-----------------|-------------------------|

G5
Gtrs III, IV
E E E E E E E E E E E E E E E E
|------------------|--------------------|
|------------------|--------------------|
|------------------|--------------------|
|--5-5-5-5-5-5-5-5-|---5-5-5-5--5-5-5-5-|
|--5-5-5-5-5-5-5-5-|---5-5-5-5--5-5-5-5-|
|--3-3-3-3-3-3-3-3-|---3-3-3-3--3-3-3-3-|
|
| Gtr VI
| ~~
| W B B
|------------------|--------------------|
|------------------|--------------------|
|-12---------------|-/14-------15-------|
|------------------|--------------------|
|-10---------------|-/12-------13-------|
|------------------|--------------------|

C5
E E E E E E E E E E E E E E E E
|------------------|---------------------|
|------------------|---------------------|
|--5-5-5-5-5-5-5-5-|---5-5-5-5--5-5-5-5--|
|--5-5-5-5-5-5-5-5-|---5-5-5-5--5-5-5-5--|
|--3-3-3-3-3-3-3-3-|---3-3-3-3--3-3-3-3--|
|------------------|---------------------|
|
| ~~
| W B B
|------------------|---------------------|
|------------------|---------------------|
|-12---------------|-/14-------15--------|
|------------------|---------------------|
|-10---------------|-/12-------13--------|
|------------------|---------------------|

F5
E E E E E E E E E E E E E E E E
|------------------|--------------------|
|------------------|--------------------|
|------------------|--------------------|
|--3-3-3-3-3-3-3-3-|---3-3-3-3--3-3-3-3-|
|--3-3-3-3-3-3-3-3-|---3-3-3-3--3-3-3-3-|
|--1-1-1-1-1-1-1-1-|---1-1-1-1--1-1-1-1-|
|
| ~~
| W B B
|------------------|--------------------|
|------------------|--------------------|
|-12---------------|-/14-------12-------|
|------------------|--------------------|
|-10---------------|-/12-------10-------|
|------------------|--------------------|

N.С.
E E E E E E E E E E E E E E E E
|------------------|---------------------------|
|------------------|---------------------------|
|--7-7-7-7-7-8-8-8-|--11-11-11-11-11-12-12-12--|
|------------------|---------------------------|
|--5-5-5-5-5-6-6-6-|---9--9--9--9--9-10-10-10--|
|------------------|---------------------------|
|
| ~~
| W B B
|------------------|---------------------------|
|------------------|---------------------------|
|-10---------------|-/14----------15-----------|
|------------------|---------------------------|
|--8---------------|-/12----------13-----------|
|------------------|---------------------------|

G5 N.С. G5 N.С. G5 N.С. G5 N.С.
Gtr III
q E E q E E q E E q E E
|-----------------------|-----------------------|
|-----------------------|-----------------------|
|-----------------------|-----------------------|
|--5----------5---------|--5----------5---------|
|--5----------5---------|--5----------5---------|
|--3--/3s16--3--/3s16-|--3--/3s16--3--/3s16-|
|
| Gtr IV
| q Q q Q q Q q Q
|-----------------------|-----------------------|
|-----------------------|-----------------------|
|-12---------12---------|-12---------12---------|
|-----------------------|-----------------------|
|-10---------10---------|-10---------10---------|
|-----------------------|-----------------------|

G5 N.С. G5 N.С. G5
q E E q E E q H.
|-----------------------|-----------|
|-----------------------|-----------|
|-----------------------|-----------|
|--5----------5---------|--5--------|
|--5----------5---------|--5--------|
|--3--/3s16--3--/3s16---|--3--------|
|
| q Q q Q q H.
|-----------------------|-----------|
|-----------------------|-----------|
|-12---------12---------|-12--------|
|-----------------------|-----------|
|-10---------10---------|-10--------|
|-----------------------|-----------|

Log In to leave a comment

After registration we will return you to the same place
Comments
face-with-monocle
If you wait a bit, some comments may appear here...

Shhh...