My Chemical Romance logo

Bury Me In Black My Chemical Romance

  • 0
  • Share
  • Transposing
    0
  • Font Size
My Chemical Romance – Bury Me In Black

Bury Me In Black - My Chemical Romance

Tabbed by: blink_green

Tuning: E A D G B E Standard
I ^- bend
I ( )- bend to note
| / slide up
| slide down Sorry , no timing for chords in verse.
I'm pretty sure this tab's accurate.
| h hammer-on Some parts are missing, couldn't figure it out. :(
| p pull-off
| ~ vibrato
| + harmonic
| x Mute note
I - Palm Mute

Guitar 1 - Intro- x8 - 0:01

E|-------I-----------------------------------------------|
B|-------I-----------------------------------------------|
G|-------I-----------------------------------------------|
D|-------I--------0h2---------------2-----------------3--|
A|--0-1-I------------------------------------------------|
E|--0-1-I---0-0---------0-0-0-0--------0-0-0-0-----------|

Guitar 2: 0:10 -
E|-------------------------------------------------------------------------------|
B|-------------------------------------------------------------------------------|
G|-------------------------------------------------------------------------------|
D|-7-7-7-7-7777-555-7-7-7-7-7777-999-7-7-7-7-7777-555-/7-77-/9-99-/10-1010-------|
A|-------------------------------------------------------------------------------|
E|-------------------------------------------------------------------------------|

E|-----------------------------------------------------------------------------|
B|-----------------------------------------------------------------------------|
G|-----------------------------------------------------------------------------|
D|-1212------------------------------------------------------------------------|
A|-----------------------------------------------------------------------------|
E|-----------------------------------------------------------------------------|

Verse - 0:18 - Guitar 1 - x2-------------------------| ' I said, we'll drown...'
E|-------------------I-----------I---------I----------|
B|-------------------I-----------I---------I----------|
G|-------------------I-----------I---------I----------|
D|--7---3--5---7--3-I -5-3-2----I--3-5-2--I-----------|
A|--7---3--5---7--3-I -5-3-2----I--3-5-2--I-----------|
E|--5---1--3---5--1-I -3-1-0----I--1-3-0--I-----------|
(on 1st time) (on 2nd time)
Guitar 2
E|---------------------------------------------------------------------------|
B|---------------------------------------------------------------------------|
G|---------------------------------------------------------------------------|
D|---------------------------------------------------------------------------|
A|---------------------------------------------------------------------------|
E|---------------------------------------------------------------------------|

Chorus Part 1 : Guitar 1 : 0:36 ' Just give us war....'
E|-------------------------------------------------------------|
B|-------------------------------------------------------------|
G|-------------------------------------------------------------|
D|--2--x-x-x-2----3--5---2-x-x-x-2--3------5-3-1-0-------------|
A|--2--x-x-x-2----3--5---2-x-x-x-2--3-----------------5-3-1-0--|
E|--0--x-x-x-0----1--3---0-x-x-x-0--1--------------------------|

Guitar 2

E|--------------------------------------------|
B|--------------------------------------------|
G|-------------------5--7------------------5--|
D|--2-x-x-x-2-----x--x---2-x-x-x-2----x-------|
A|--2-x-x-x-2-----3--5---2-x-x-x-2---3--------|
E|--0-x-x-x-0-------------0-x-x-x-0-----------|

Chorus Part 2 : Guitar 1 : 0:44 : x3
E|-------------------------------------------------------------------------------|
B|-------------------------------------------------------------------------------|
G|-------------------------------------------------------------------------------|
D|-------0h2-----------3----------2-------I----5p3-3--3p2-2--2p0-0---------------|
A|------------------------------------------------------------------5p3-3---0----|
E|--0-0-------0-0-0-0-----0-0-0-0------------------------------------------------|

Guitar 2
E|-------------------------------------I-----------------------------------------|
B|-------------------------------------I-----------------------------------------|
G|-------------------------------------I-----------------------------------------|
D|--2-2--2--2-2-2-2--3--2-2-2-2---2---I------------------------------------------|
A|--2-2--2--2-2-2-2--3--2-2-2-2---2---I------5p3-3---3p2-2---2p0-0---------------|
E|--0-0--0--0-0-0-0--1--0-0-0-0---0---I-----------------------------5p3-3---0----|

Repeat Verse

Repeat Chorus ( Part 1 )
On twelfth time , substitute

0000 2p0h2 for this:
Bridge : Guitar 1: 1:17 : x12 " Shotgun!! "
E|----------------------------------------------------------------------------|
B|----------------------------------------------------------------------------|
G|----------------------------------------------------------------------------|
D|------------3p2h3-------------2p0h2---------------------------------|-3-5---|
A|---------------------------------------------------------------------I-3-5--|
E|-0-0-0-0-----------0-0-0-0-------------------------------------------|-1-3--|

Guitar 2 : ( Comes in on x2 Bridge then plays untill end of bridge.)
E|-------------------------------------|
B|-------------------------------------|
G|-------------------------------------|
D|(3-3-3-3)-(3-3-3)---2-2-2-2---2-2-2--|
A|(3-3-3-3)-----------2-2-2-2----------|
E|(1-1-1-1)-----------0-0-0-0----------|

Guitar 1 : After Bridge: 1:43 : x4
E|---------------------------|
B|---------------------------|
G|---------------------------|
D|--7--5--3--5---------------|
A|--7--5--3--5---------------|
E|--5--3--1--3---------------|

Guitar 2
E|---------------------------------------------------------------------------|
B|---------------------------------------------------------------------------|
G|---------------------------------------------------------------------------|
D|---------------------------------------------------------------------------|
A|---------------------------------------------------------------------------|
E|---------------------------------------------------------------------------|

Guitar 1 : x4
X4 again after 1st x4. ( After 1st x4 leave out on 2nd x4)
E|----------------------------------I---------------------------------------------|
B|----------------------------------I---------------------------------------------|
G|----------------------------------I---------------------------------------------|
D|---7--2--3---------------------I--------3-3-3-3---------------------------------|
A|---7--2--3---------------------I--------3-3-3-3---------------------------------|
E|---5--0--1----------------------I-------1-1-1-1---------------------------------|

Guitar 2: x4
E|-------------------------------------------------------------------------------|
B|-------------------------------------------------------------------------------|
G|-------------------------------------------------------------------------------|
D|---7--2--3----------------------I-------3-3-3-3--------------------------------|
A|---7--2--3-----------------------I------3-3-3-3--------------------------------|
E|---5--0--1-----------------------I------1-1-1-1--------------------------------|

E|-------------------------------------------------------------------------------|
B|-------------------------------------------------------------------------------|
G|-------------------------------------------------------------------------------|
D|---5p3 3---3p2-2---2p0--0------------------------------------------------------|
A|-------------------------------------------------------------------------------|
E|-------------------------------------------------------------------------------|

That took hours , because its my first tab :D... Go easy on me!

Log In to leave a comment

After registration we will return you to the same place
Comments
face-with-monocle
If you wait a bit, some comments may appear here...

Shhh...