Loading...
  • 0
  • Share
  • Transposing
    0
  • Font Size
Bass Tab: You
Artist: Mustard Plug
Album: Evildoers Beware!
Author: Rattman ([email protected])
This Bassline gets a little crazy (the section with the hammers and pulls) and
Its hard to hear on the CD. This sounds pretty good when played along with
The recording.

Intro:
G-------------
D-----0-0-1-1-
A-1-1---------
E-------------

Verse (w/ Clean Ska Guitar):
G-------------------5p3-----
D-----0-0-1-1-3-3h5-----3p5-
A-1-1-----------------------
E---------------------------

Chorus
G-------------------
A-------------------
D---------6-6-6-6-6-
E-3-3-3-3-----------

Verse (w/ Distored Guitar)

G-------------------------------------
D-------------------------------------
A-1-1-1-1-0-0-0-0---------6-6-6-6-5-3-
E-----------------3-3-3-3-------------

Outro:

G-------------------
D-------------------
A-----3-3-1-1-0-1h3-
E-1-1---------------

Requests for Bass Tabs? EMail Me: [email protected]

Log In to leave a comment

After registration we will return you to the same place
Comments
face-with-monocle
If you wait a bit, some comments may appear here...

Shhh...

Most Popular
You Might Like