Loading...
Mustard Plug logo

Miss Michigan Mustard Plug

  • 0
  • Share
  • Transposing
    0
  • Font Size
Song: Miss Michigan
Band: Mustard Plug
Album: Evildoers Beware
Tabbed By: sXeLTJpunk

Intro 1.
G: ---------------------------------------------------------------
D: ---------------------------------------------------------------
A: ------777------6764------777----99--9-7-6-4--------------------
E: --7-7------7-7-------7-7---------------------------------------

Verse 2.
G: ---------------------------------------------------------------
D: --------6-8----------------------------------------------------
A: ---696-7-9----6967646------------------------------------------
E: --7----------7-------------------------------------------------

Chorus 3.
G: ---------------696---------------------------------------------
D: ---------696--7------696---------696---------------------------
A: ---696--7-----------7------696--7---7--------------------------
E: --7-----------------------7------------------------------------

Bridge 4.
G: ---------------------------------------------------------------
D: ---------------------------------------------------------------
A: --7-----7---79---97--------------------------------------------
E: ---7---7-------------------------------------------------------

Playing Order:

1-1x
2-6x
3-1x
2-6x
3-1x
4-1x
1-1x
2-6x
3-1x
1-1x

Log In to leave a comment

After registration we will return you to the same place
Comments
face-with-monocle
If you wait a bit, some comments may appear here...

Shhh...

Most Popular
You Might Like