Motorhead logo

Louie Louie Motorhead

  • 0
  • Share
  • Transposing
    0
  • Font Size
Motorhead – Louie Louie
RIFF I

D5 A5 D5 E5 D5

|-----|-----------------------------------|
|-----|-----------------------------------|
|-----|o---------------------------------o| <=7X
|--7--|o-----------7-7-X--9-9-9-X--7-7-X-o|
|--5--|--7-7-7-X---5-5-X--7-7-7-X--5-5-X--|
|-----|--5-5-5-X--------------------------|

RIFF II

A5 D5 E5 D5

|-------------------------------|
|-------------------------------|
|-------------------------------|
|----------7-X-7---9-9-9-X----7-| <=4X
|--7-X-7---5-X-5---7-7-7-X----5-|
|--5-X-5------------------------|

Play the (RIFF I more 4X and the RIFF II 4X) twice, than plays
The RIFF I again. After the solo, the BASS plays alone and the
Guitar only plays this: (listen the song to take the rythm)

D
|-----------|
|-----------|
|----7------| <= 4x
|----7------|
|----5------|
|-----------|

Play the RIFF I again more 4x then play the final:

A5
|----------------------------|
|----------------------------|
|----------------------------|
|----------------------------|
|---7--7--7--7--7----------7-|
|---5--5--5--5--5----------5-|

Log In to leave a comment

After registration we will return you to the same place
Comments
face-with-monocle
If you wait a bit, some comments may appear here...

Shhh...