Loading...
Motorhead logo

Ace Of Spades Motorhead

  • 0
  • Share
  • Transposing
    0
  • Font Size
Riff 1:
E|--------------|
B|--------------|
G|--------------|
D|--------------|
A|-666 666 6664-|
E|--------------|

Riff 2:
|--------------|
|--------------|
|--------------|
|-888-88-77-6--|
|-666----------|
|--------------|

Riff 3:
|----------------------------|
|----------------------------|
|----------------------------|
|----11-10-8-10-8-11-10-8----|
|-------------------------66-|
|----------------------------|

Riff 4: (might have number of times played wrong)
|---------------------------------------------|
|---------------------------------------------|
|---------------------------------------------|
|-6-6-6-6-6-6-6-6-6-8-6-----------------------|
|-4-4-4-4-4-4-4-4-4-6-4-9-8-8-8-8-8-8-8-8-8-8-|
|-----------------------7-6-6-6-6-6-6-6-6-6-6-|

Riff 5:
|-------|
|-------|
|-------|
|-8-6-8-|
|-6-4-6-|
|-------|

|---| This chord is played during the singing parts
|---| listen to the CD; it's not played that much
|---| You could probably leave it out if you wanted
|-3-|
|-1-|
|---|

Log In to leave a comment

After registration we will return you to the same place
Comments
face-with-monocle
If you wait a bit, some comments may appear here...

Shhh...